Página 7 de 10 PrimeiroPrimeiro ... 345678910 ÚltimoÚltimo
Resultados 91 a 105 de 141

Tópico: Baixo (Partituras)

  1. #91
    Administrador Avatar de edu_fmc
    Data de Ingresso
    Feb 2008
    Idade
    30
    Posts
    21.094

    Padrão Megadeth - Vortex

    Megadeth - Vortex


    Código:
    Intro 
     
    I-----------|-------------------------------------I 
    I-----------|-------------------------------------I 
    I-2-2---2-2-|-2---------5-4-3--5---------5-4-3-2--I 
    I-----------|--0-2-3-4-5--------0-2-3-4-5---------I 
     
    I-------------------------------------------------------------------------- 
    I-------------------------------------------------------------------------- 
    I-2-2-2-2-2-2-2-2-2-2-2-2-2-2-2-2-2-2-2-2-2-------------------------------- 
    I------------------------------------------3-3-3-3-3-3-3-3-5-5-5-5-5-5-5-5- 
     
    ------------------------------------------------------I 
    ------------------------------------------------------I 
    -2-2-2-2-2-2-2-2-2-2---------5-4-3-5---------5-4-3-2--I 
    --------------------0-2-3-4-5-------0-2-3-4-5---------I 
     
    Verse 1 
    Repeat Twice 
    I------------------------------------------------ 
    I------------------------------------------------ 
    I-2-2-2-2-2-2-2-2-5-5-5-5-5-5-5-5---------------- 
    I--------------------------------3-3-3-3-3-3-3-3- 
     
     --------------------------------------I 
     --------------------------------------I 
     --------------------------------------I 
     -2-2-2-2-2-2-2-2-2-1-1-1-1-1-1-1-1-0--I 
     
    I--------------------------------------------------------------------------I 
    I--------------------------------------------------------------------------I 
    I-2-2-2-2-2-2-2-2-5-5-5-5-5-5-5-5-10-10-10-10-10-10-10-10-9-9-9-9-8-8-8-8--I 
    I--------------------------------------------------------------------------I 
     
    Chorus 
     
    I-------------------------------------------------------------------------- 
    I-------------------------------------------------------------------------- 
    I-2-2-2-2-2-2-2-2-2-2-2-2-2-2-2-2-2-2-2-2-2-------------------------------- 
    I------------------------------------------3-3-3-3-3-3-3-3-5-5-5-5-5-5-5-5- 
     
    ----------------------------------------------------I 
    ----------------------------------------------------I 
    -2-2-2-2-2-2-2-2-2-2---------5-4-3-5-------5-4-3-2--I 
    --------------------0-2-3-4-5-------0-2-4-5---------I 
     
    Verse 2 
    Repeat Twice 
    I------------------------------------------------ 
    I------------------------------------------------ 
    I-2-2-2-2-2-2-2-2-5-5-5-5-5-5-5-5---------------- 
    I--------------------------------3-3-3-3-3-3-3-3- 
     
     --------------------------------------I 
     --------------------------------------I 
     --------------------------------------I 
     -2-2-2-2-2-2-2-2-2-1-1-1-1-1-1-1-1-0--I 
     
    I--------------------------------------------------------------------------I 
    I--------------------------------------------------------------------------I 
    I-2-2-2-2-2-2-2-2-5-5-5-5-5-5-5-5-10-10-10-10-10-10-10-10-9-9-9-9-8-8-8-8--I 
    I--------------------------------------------------------------------------I 
     
    Chorus 2 
     
    I-------------------------------------------------------------------------- 
    I-------------------------------------------------------------------------- 
    I-2-2-2-2-2-2-2-2-2-2-2-2-2-2-2-2-2-2-2-2-2-------------------------------- 
    I------------------------------------------3-3-3-3-3-3-3-3-5-5-5-5-5-5-5-5- 
     
    ---------------------------------------------------I 
    ---------------------------------------------------I 
    -2-2-2-2-2-2-2-2-2-2---------5-4-3-5---------------I 
    --------------------0-2-3-4-5-------0-2-4-5-4-3-2--I 
     
    Interlude 
    Repeat Twice, take 2nd ending                                                     
    I--------------------------------------------------------------- 
    I----------------------------------------3---------------------- 
    I----2---1---2-2-1-0--------2---1---2-2-1--2---1---2-2-2-1-0---- 
    I-0-0-0-0-0-0---0---3-0--0-0-0-0-0-0---0--0-0-0-0-0---------3-0- 
     
                      |2nd ending 
    ------------------|---I 
    -----------------3|---I 
    ----2---1---2-2-1-|-1-I 
    -0-0-0-0-0-0---0--|---I 
     
    Pre solo 
    Repeat twice 
    I------------------------------------------------ 
    I------------------------------------------------ 
    I-2-2-2-2-2-2-2-2-5-5-5-5-5-5-5-5---------------- 
    I--------------------------------3-3-3-3-3-3-3-3- 
     
    --------------------------------------I 
    --------------------------------------I 
    --------------------------------------I 
    -2-2-2-2-2-2-2-2-2-1-1-1-1-1-1-1-1-0--I 
     
    I------------------------------------------------- 
    I------------------------------------------------- 
    I-2-2-2-2-2-2-2-2-5-5-5-5-5-5-5-5---------------9- 
    I--------------------------------3-3-3-3-3-3-3-3-- 
     
    --------------------------------I 
    --------------------------------I 
    -9-9-9-9-9-9-9-8-8-8-8-8-8-8-8--I 
    --------------------------------I 
     
    Solo 1 
                                                                                                                             
    I--------------------------------------------------------------- 
    I------------------9-9-9-9-9-9-9-9---------------9-7-7---------- 
    I-2-2-2-2-2-2-\-7-9---------------2-2-2-2-2-2-\-7---9-9-8-7-2-2- 
    I--------------------------------------------------------------- 
     
                                                              1st ending                                                                                   
     ---------------------------------------------------------|---I 
     ------------9-9-9-9-9-9-9-9-7----------------------------|---I 
     -2-2-2-2-\-7-----------------9-2-2-2-2-2-2-2-2-----------|2--I 
     ----------------------------------------------3-3-3-5-5-5|---I 
    															  
    I----------------------------------------------------------------- 
    I------------------9-9-9-9-9-9-9-9---------------9-7-7------------ 
    I-2-2-2-2-2-2-\-7-9---------------2-2-2-2-2-2-\-7---9-9-8-7-2-2-2- 
    I----------------------------------------------------------------- 
     
    							2nd ending  
     -------------------------------------------------------|---I 
     ----------9-9-9-9-9-9-9-9-7----------------------------|---I 
     -2-2-2-\-7-----------------9-2-2-2-2-2-2-2-2-----------|4--I 
     --------------------------------------------3-3-3-5-5-5|---I 
     
    I------------------------------------------------------------ 
    I------------------------------------------------------------ 
    I-4-4-4-4-4-4-4-4---------------4-7-4-4-4-4-4-4-4-4---------- 
    I----------------3-3-3-3-3-3-3-3-------------------3-3-3-3-3- 
     
    --------------------------------------------------------------I 
    --------------------------------------------------------------I 
    ------4-7-4-4-4-4-4-4-4-4---------------4-7-4-4-4-4-4-4-4-4---I 
    -3-3-3-------------------3-3-3-3-3-3-3-3-------------------3--I 
     
    I----------------------------------------------------------------- 
    I------------------9-9-9-9-9-9-9-9---------------9-7-7------------ 
    I-2-2-2-2-2-2-\-7-9---------------2-2-2-2-2-2-\-7---9-9-8-7-2-2-2- 
    I----------------------------------------------------------------- 
     
    ---------------------------------------------------------I 
    ----------9-9-9-9-9-9-9-9-7------------------------------I 
    -2-2-2-\-7-----------------9-2-2-2-2-2-2-2-2-------------I 
    --------------------------------------------3-3-3-5-5-5--I 
     
    Solo 2/Outro 
     
    I have NO clue how to write this out because I can't even figure out when to  
    change notes. I know the notes, that was the easy part but if you can figure  
    out the timing, well, then at least someone can. I was however able to get  
    the half time section of this outro. (by some miracle) The notes for both  
    sections are the same (A G#, G, F#, F, E - Chromatic) and hopefully that is  
    enough to get you started. 
     
    Half time - 3rd time, Repeat till end 
    I------------------------------------------------------------I 
    I------------------------------------------------------------I 
    I--------------------------------------------------------3---I 
    I-5-5-5-5-4-4-4-4-3-3-3-3-2-2-2-2-1-1-1-1-0-0-0-0--5--3-5-5--I



  2. #92
    Administrador Avatar de edu_fmc
    Data de Ingresso
    Feb 2008
    Idade
    30
    Posts
    21.094

    Padrão Megadeth - Youthanasia

    Megadeth - Youthanasia


    Código:
                         1.,2.,3. 
                        |~~~~~~~~~~~~~~~~~~~ 
    G:---------------------------------------|-------------------| 
    D:*---------------------------------5\--*|-------------------| 
    A:---------------------------------------|-------------------| 
    E:*-<0>--<2>----<3>-----5----6---7------*|---5----6---7--r---| 
    B:---5----7------8-----------------------|-------------------| 
     
                                                                %sign 
     
    G:---------------|-----------------|-------------------------------| 
    D:---------------|-----------------|-----_--_--_----_--------------| 
    A:---------------|-Bass-Rest--(6)--|--R-<4><4><5>--<6>-------------| 
    E:-<0>-----------|-----------------|---------------------<0>-------| 
    B:--5-\----------|-----------------|-----2--2--3----4-----5-\------| 
                                                             grad.sld. 
                                                                 1.Who'd 
     
                                                             2nd time| 
                                                            to Coda -0- 
                                                                     | 
    G:-----------------|------------------------------|-----------------| 
    D:-----------------|-----_--_--_----_-------------|-----------------| 
    A:--Bass-Rest-(6)--|--R-<4><4><5>--<6>------------|--Bass-Rest-(7)--| 
    E:-----------------|--------------------<0>-------|-----------------| 
    B:-----------------|-----2--2--3----4----5-\------|-----------------| 
                                            grad.sld. 
       believe... 
     
                                                          D.S. % al 
                           1.,2.,3.               4.         Coda 
                          |~~~~~~~~~~~~~~~~~~~~  |~~~~~~~~~~~~~~~~ 
    G:-------------------|----------------------|-----------------| 
    D:*------------------|----------------5\---*|-----------------| 
    A:-------------------|----------------------|-----------------| 
    E:*<0>--<2>-----<3>--|---5----6---7--------*|--5-----6---7----| 
    B:--5----7-------8---|----------------------|-----------------| 
     
     
         | CODA                                                 
        -0- 
         |                            (x3) 
       G:-----------------|-------------------|------------------| 
       D:*----------------|--------------5\--*|------------------| 
       A:-----------------|-------------------|------------------| 
       E:*-<0>--<2>---<3>-|--5----6---7------*|-<0>--<2>----<3>--| 
       B:---5----7-----8--|-------------------|--5----7------8---| 
      
     
    G:----------------------------|------------------------------------| 
    D:----------------------------|*------~~~~~~~----------------------| 
    A:--/10--/10--/10--/9--9--9---|-------7------------------5--(5)\---| 
    E:----------------------------|*-<0>------------7-6---6------------| 
    B:----------------------------|---5--------------------------------| 
     
     
    G:--------------------------|---------------------------------| 
    D:------~~~~~~--------------|------~~~~~~---------------------| 
    A:------7-------------------|------7----------------5---(5)\--| 
    E:-<0>----------7-6---6-3---|-<0>----------7-6---6------------| 
    B:--5-----------------------|--5------------------------------| 
     
     
    G:-------------------------------| 
    D:------~~~~~~------------------*| 
    A:------7------------------------| 
    E:-<0>----------7--6----R-------*| 
    B:--5----------------------------| 
     
     
    G:--------------------------------------------------------------7--9--(9)\---| 
    D:---------------------------------------------------------7-9---------------| 
    A:---------------------------------------------------------------------------| 
    E:-<0>----------<0><0>-----------<0-0><0>---------<0><0>------------------<0>| 
    B:--5------r-----5--5--------r----5-5--5----r------5--5--------------------5-| 
     
     
    G:--------------------------------------------------------| 
    D:--------------------------------------------------------| 
    A:--------------------------------------------------------| 
    E:-------<0><0>--------<0-0><0>-------<0><0>--3--4----5---| 
    B:----r---5--5-----r----5-5--5-----r---5--5---------------| 
     
     
          Gtr Solo 
    G:--------------------------------------------------------------------| 
    D:*-------------------------------------------------------------------| 
    A:--------------------------------------------------------------------| 
    E:*-<0-0-0-0-0-0-0-0-0-0-0-0-0-0-0-0>7-7-7-7-7-7-7-7-7-7-7-7-7-7-7-7--| 
    B:---5-5-5-5-5-5-5-5-5-5-5-5-5-5-5-5----------------------------------| 
     
     
                                                             (x4) 
    G:-------------------------------------------------------------| 
    D:------------------------------------------------------------*| 
    A:-------------------------------------------------------------| 
    E:-6-6-6-6-6-6-6-6-6-6-6-6-6-6-6-6-3--3-3-3-3-3-3-3--4----5---*| 
    B:-------------------------------------------------------------| 
     
     
                                                             (x2) 
    G:------------------------------------------------------------|---------| 
    D:*----------------------------------------------------------*|---------| 
    A:------------------------------------------------------------|---Rest--| 
    E:*<0-0><0>-<0-0><0-0>-<0>-<0-0><0-0>-<0>-<0-0>--3--4----5---*|---------| 
    B:--5-5--5---5-5--5-5---5---5-5--5-5---5---5-5----------------|---------| 
     
     
    G:-------------------------------|------------------------| 
    D:*-----~~~~---------------------|-----~~~~---------------| 
    A:------7---------------5--(5)\--|-----7------------------| 
    E:*-<0>-------7--6---6-----------|-<0>-------7-6---6-3----| 
    B:---5---------------------------|--5---------------------| 
     
     
                                                             (x3) 
    G:--------------------------------|--------------------------| 
    D:------~~~~~~--------------------|------~~~~---------------*| 
    A:------7----------------5--(5)\--|------7-------------------| 
    E:-<0>----------7-6---6-----------|-<0>---------7--6--------*| 
    B:--5-----------------------------|--5-----------------------|



  3. #93
    Administrador Avatar de edu_fmc
    Data de Ingresso
    Feb 2008
    Idade
    30
    Posts
    21.094

    Padrão Green Day - Burnout

    Green Day - Burnout


    Código:
    VERSO I 
    I declare... 
    |------------------------------------------------------------------------------------------------------------------ 
    |--------------------------------------------------------------------------------------0--0--0--0--0--0--0--0-- 
    |-----------------3--3--3--3---------------3--3----------------------------------------------------------------- 
    |--3--3--3--3-----------------3--3--3--3--------1--1--3--3--3--3--1--1--1--1------------------------------ 
     
    VERSO II 
    My hair... 
    |------------------------------------------------------------------------------------------------------------------ 
    |--------------------------------------------------------------------------------------0--0--0--0--0--0--0--0-- 
    |-----------------3--3--3--3---------------3--3----------------------------------------------------------------- 
    |--3--3--3--3-----------------3--3--3--3--------1--1--3--3--3--3--1--1--1--1------------------------------ 
     
    Chorus 
    I'm not growing up... 
    |---------------------------------------------------------------------------------------------------------------- 
    |------------------------------------------------------------------------------------0--0--0--0--0--0--0--0-- 
    |--3--3--3--3----------------3--3----------------------3--3--3--3------------------------------------------- 
    |----------------3--3--3--3---------1--1--3--3--3--3---------------1--1--1--1----------------------------- 
     
    VERSO III 
    Apathy has rained on me... 
    |------------------------------------------------------------------------------------------------------------------ 
    |--------------------------------------------------------------------------------------0--0--0--0--0--0--0--0-- 
    |-----------------3--3--3--3---------------3--3----------------------------------------------------------------- 
    |--3--3--3--3-----------------3--3--3--3--------1--1--3--3--3--3--1--1--1--1------------------------------ 
     
    VERSO IV 
    I've lived in this mental cave... 
    |------------------------------------------------------------------------------------------------------------------ 
    |--------------------------------------------------------------------------------------0--0--0--0--0--0--0--0-- 
    |-----------------3--3--3--3---------------3--3----------------------------------------------------------------- 
    |--3--3--3--3-----------------3--3--3--3--------1--1--3--3--3--3--1--1--1--1------------------------------ 
     
    Chorus  ( 2X ) 
    I'm not growing up... 
    |---------------------------------------------------------------------------------------------------------------- 
    |------------------------------------------------------------------------------------0--0--0--0--0--0--0--0-- 
    |--3--3--3--3----------------3--3----------------------3--3--3--3------------------------------------------- 
    |----------------3--3--3--3---------1--1--3--3--3--3---------------1--1--1--1----------------------------- 
     
    Dead... 
    |------------------------------------------------------------------------------------------------------------ 
    |--0--0--0--0--0--0--0--0-------------------------------------------------------------------------------- 
    |------------------------------------------------------------------------------------------------------------ 
    |--------------------------------3--3--3--1--3----3--3--3--1--3----3--3--3--1--3----3--3--3--1--3-- 
     
    Chorus  ( 2X ) 
    I'm not growing up... 
    |---------------------------------------------------------------------------------------------------------------- 
    |------------------------------------------------------------------------------------0--0--0--0--0--0--0--0-- 
    |--3--3--3--3----------------3--3----------------------3--3--3--3------------------------------------------- 
    |----------------3--3--3--3---------1--1--3--3--3--3---------------1--1--1--1----------------------------- 
     
    Dead... 
    |-------------------------------------------------- 
    |--0--0--0--0--0--0--0--0---------------------- 
    |-------------------------------------------------- 
    |--------------------------------3--3--3--1--3--



  4. #94
    Administrador Avatar de edu_fmc
    Data de Ingresso
    Feb 2008
    Idade
    30
    Posts
    21.094

    Padrão Green Day - 1000 Hours

    Green Day - 1000 Hours


    Código:
    Verse 
    G---------| 
    D---------| 
    A---------| 
    E-4-4-4-4-| 
     
    G---------------------| 
    D---------------------| 
    A---------456-6-6-6-6-| 
    E-4-4-4-4-------------| 
     
    Chorus            4 
    G-----------------|---------| 
    D-----------------|---------| 
    A-----------------|-6-6-6-6-| 
    E-1-1-1-1-2-2-2-2-|---------| 
     
    Bridge/Outtro 
    G---------------------|---------------------------------| 
    D---------------------|---------------------------------| 
    A---------456-6-6-6-6-|-6-5-4-4-------------4-5-6-6-6-6-| 
    E-4-4-4-4-------------|---------4-4-4-4-4-4-------------|



  5. #95
    Administrador Avatar de edu_fmc
    Data de Ingresso
    Feb 2008
    Idade
    30
    Posts
    21.094

    Padrão Green Day - 16

    Green Day - 16


    Código:
    Intro 
    
     G--2h4-2h4--| 
     D-----------| 
     A-----------| 
     E-----------| 
    
     Verse 
    
     G--------------|---------2h4-2h4-|--------------|------------|  
     D--------------|-2-2-2-----------|--------------|-2-2-2------|
     A--2-2-2-0-0-0-|------2----------|--2-2-2-0-0-0-|------2-2-2-|
     E--------------|-----------------|--------------|------------|
    
    
     G--------------|---------2h4-2h4-|--------------|------------|  
     D--------------|-2-2-2-----------|--------------|-2-2-2------|
     A--2-2-2-0-0-0-|------2----------|--2-2-2-0-0-0-|------2-2-2-|
     E--------------|-----------------|--------------|------------|
    
    
     G--------------|---------2h4-2h4-|--------------|------------|  
     D--------------|-2-2-2-----------|--------------|-2-2-2------|
     A--2-2-2-0-0-0-|------2----------|--2-2-2-0-0-0-|------2-2-2-|
     E--------------|-----------------|--------------|------------|
    
     
     G--------------|---------2h4-2h4-|--------------|------------|  
     D--------------|-2-2-2-----------|--------------|-2-2-2------|
     A--2-2-2-0-0-0-|------2----------|--2-2-2-0-0-0-|------2-2-2-|
     E--------------|-----------------|--------------|------------|
    
     
     G--------------|---------2h4-2h4-|--------------|------------|  
     D--------------|-2-2-2-----------|--------------|-2-2-2------|
     A--2-2-2-0-0-0-|------2----------|--2-2-2-0-0-0-|------2-2-2-|
     E--------------|-----------------|--------------|------------|
    
     Chorus 
    
     G--------------|---------------|--------------|---------------|  
     D--------------|---------------|--------------|---------------|  
     A--3-3-3-5-5-5-|-2-2-2-0-2-2-2-|--3-3-3-5-5-5-|-2-2-2-0-2-2-2-|  
     E--------------|---------------|--------------|---------------|
    
     G--------------|---------------|--------------|---------------|  
     D--------------|---------------|--------------|---------------|  
     A--3-3-3-5-5-5-|-2-2-2-0-2-2-2-|--3-3-3-5-5-5-|-2-2-2-0-2-2-2-|  
     E--------------|---------------|--------------|---------------|
    
     Verse 
    
     G--------------|---------2h4-2h4-|--------------|------------|  
     D--------------|-2-2-2-----------|--------------|-2-2-2------|
     A--2-2-2-0-0-0-|------2----------|--2-2-2-0-0-0-|------2-2-2-|
     E--------------|-----------------|--------------|------------|
    
     G--------------|---------2h4-2h4-|--------------|------------|  
     D--------------|-2-2-2-----------|--------------|-2-2-2------|
     A--2-2-2-0-0-0-|------2----------|--2-2-2-0-0-0-|------2-2-2-|
     E--------------|-----------------|--------------|------------|
    
     G--------------|---------2h4-2h4-|--------------|------------|  
     D--------------|-2-2-2-----------|--------------|-2-2-2------|
     A--2-2-2-0-0-0-|------2----------|--2-2-2-0-0-0-|------2-2-2-|
     E--------------|-----------------|--------------|------------|
    
     G--------------|---------2h4-2h4-|--------------|------------|  
     D--------------|-2-2-2-----------|--------------|-2-2-2------|
     A--2-2-2-0-0-0-|------2----------|--2-2-2-0-0-0-|------2-2-2-|
     E--------------|-----------------|--------------|------------|
    
     G--------------|---------2h4-2h4-|--------------|------------|  
     D--------------|-2-2-2-----------|--------------|-2-2-2------|
     A--2-2-2-0-0-0-|------2----------|--2-2-2-0-0-0-|------2-2-2-|
     E--------------|-----------------|--------------|------------|
    
     Chorus 
    
     G--------------|-----------------| 
     D--------------|-----------------| 
     A--3-3-3-5-5-5-|-2-2-2-0-2-2-2-2-| 
     E--------------|-----------------| 
    
     G--------------|-----------------| 
     D--------------|-----------------| 
     A--3-3-3-5-5-5-|-2-2-2-0-2-2-2-2-| 
     E--------------|-----------------|
    
     G--------------|-----------------| 
     D--------------|-----------------| 
     A--3-3-3-5-5-5-|-2-2-2-0-2-2-2-2-| 
     E--------------|-----------------|
    
     G--------------|-----------------| 
     D--------------|-----------------| 
     A--3-3-3-5-5-5-|-2-2-2-0-2-2-2-2-| 
     E--------------|-----------------|
    
     Bass Solo  
     
     G------2h4-2h4-2h4-------1-0-------|
     D----------------------------3-2-1-| 
     A--2-2--------------2-2------------| 
     E----------------------------------|
    
     G------2h4-2h4-2h4-------1-0-------|
     D----------------------------3-2-1-| 
     A--2-2--------------2-2------------| 
     E----------------------------------|
    
     G------2h4-2h4-2h4-------1-0-------|
     D----------------------------3-2-1-| 
     A--2-2--------------2-2------------| 
     E----------------------------------|
    
     G------2h4-2h4-2h4-------1-0-------|
     D----------------------------3-2-1-| 
     A--2-2--------------2-2------------| 
     E----------------------------------|
    
     Chorus 
     
     G--------------|-----------------| 
     D--------------|-----------------| 
     A--3-3-3-5-5-5-|-2-2-2-0-2-2-2-2-| 
     E--------------|-----------------| 
    
     G--------------|-----------------| 
     D--------------|-----------------| 
     A--3-3-3-5-5-5-|-2-2-2-0-2-2-2-2-| 
     E--------------|-----------------|
    
     G--------------|--------------------------| 
     D--------------|--------------------------| 
     A--3-3-3-5-5-5-|-2-2-2-0-2-2-2-2-0-3h20-2-| 
     E--------------|--------------------------|
    
     G--------------|-----------------| 
     D--------------|-----------------| 
     A--3-3-3-5-5-5-|-2-2-2-0-2-2-2-2-| 
     E--------------|-----------------| 
      
     Verse
     
     G--------------|---------2h4-2h4-|--------------|------------|  
     D--------------|-2-2-2-----------|--------------|-2-2-2------|
     A--2-2-2-0-0-0-|------2----------|--2-2-2-0-0-0-|------2-2-2-|
     E--------------|-----------------|--------------|------------|
    
     G--------------|---------2h4-2h4-|--------------|------------|  
     D--------------|-2-2-2-----------|--------------|-2-2-2------|
     A--2-2-2-0-0-0-|------2----------|--2-2-2-0-0-0-|------2-2-2-|
     E--------------|-----------------|--------------|------------|
    
     G--------------|---------2h4-2h4-|--------------|------------|  
     D--------------|-2-2-2-----------|--------------|-2-2-2------|
     A--2-2-2-0-0-0-|------2----------|--2-2-2-0-0-0-|------2-2-2-|
     E--------------|-----------------|--------------|------------|
    
     G--------------|---------2h4-2h4-|--------------|------------|  
     D--------------|-2-2-2-----------|--------------|-2-2-2------|
     A--2-2-2-0-0-0-|------2----------|--2-2-2-0-0-0-|------2-2-2-|
     E--------------|-----------------|--------------|------------|
    
     Chorus 
    
     G--------------|-----------------| 
     D--------------|-----------------| 
     A--3-3-3-5-5-5-|-2-2-2-0-2-2-2-2-| 
     E--------------|-----------------| 
    
     G--------------|-----------------| 
     D--------------|-----------------| 
     A--3-3-3-5-5-5-|-2-2-2-0-2-2-2-2-| 
     E--------------|-----------------|
    
     G--------------|-----------------| 
     D--------------|-----------------| 
     A--3-3-3-5-5-5-|-2-2-2-0-2-2-2-2-| 
     E--------------|-----------------|
    
     G--------------|-----------------| 
     D--------------|-----------------| 
     A--3-3-3-5-5-5-|-2-2-2-0-2-2-2-2-| 
     E--------------|-----------------|
    
     G--------------|--------------------------| 
     D--------------|--------------------------| 
     A--3-3-3-5-5-5-|-2-2-2-0-2-2-2-2-0-3h20-2-| 
     E--------------|--------------------------|
    
     G--------------|-----------------| 
     D--------------|-----------------| 
     A--3-3-3-5-5-5-|-2-2-2-0-2-2-2-2-| 
     E--------------|-----------------|
    
     G--------------|--------------------------| 
     D--------------|--------------------------| 
     A--3-3-3-5-5-5-|-2-2-2-0-2-2-2-2-0-3h20-2-| 
     E--------------|--------------------------|
    
     G--------------|-----------------| 
     D--------------|-----------------| 
     A--3-3-3-5-5-5-|-2-2-2-0-2-2-2-2-| 
     E--------------|-----------------|
    
     Outro 
    
     G----------------------|
     D--------------2-2-2---| 
     A--2-2-2-0-0-0-------2-| 
     E----------------------|



  6. #96
    Administrador Avatar de edu_fmc
    Data de Ingresso
    Feb 2008
    Idade
    30
    Posts
    21.094

    Padrão Green Day - 2000 Light Years Away

    Green Day - 2000 Light Years Away


    Código:
    Riff #1
    
        B       F#   Ab    F#
    G|-------------------------------|
    D|----------4--------------------|
    A|--2-2-0-2-----------------2h4--|
    E|-------------0-4-0-2--2h4------|
    
    Riff #2
    
        B       F#   Ab  F#
    G|------------------------------|
    D|----------4-------------------|
    A|--2-2-0-2---------------------|
    E|-------------0-4-0-2-2-2-2-0--|
    
    Riff #3
    
        Ab        B             Ab          F#           Em        F#
    G|------------------------------------------------------------------------|
    D|----------------------------------6-----4---4-4-4-----------------------|
    A|------------2-2-2-2-2-4-------------------------------------------------|
    E|--4-4-4-4-0-------------0-4-4---4---0-2---2--------0-0-0-0-0-2-2-2-2-2--|
    
    Riff #4
    
        Bb  B   Bb  B   Bb  B   Bb  B
    G|-----------------------------------|
    D|-----------------------------------|
    A|--1h2-2-2-1h2-2-2-1h2-2-2-1h2-2-0--|
    E|-----------------------------------|
    
    Riff #5
        B       F#   Ab    F#        B
    G|-----------------------------------|
    D|----------4------------------------|
    A|--2-2-0-2-----------------2h4--2~--|
    E|-------------0-4-0-2--2h4----------|



  7. #97
    Administrador Avatar de edu_fmc
    Data de Ingresso
    Feb 2008
    Idade
    30
    Posts
    21.094

    Padrão Green Day - 409 In Your Coffee Maker

    Green Day - 409 In Your Coffee Maker


    Código:
    Intro
    -----
    
    G-------------
    D------------- 4x
    A--3-3-3------
    E--------2-3--
    
    Verse
    -----
    
    G-------------------
    D-------------------
    A-------------------
    E--3-3-3-3-1-1-1-1--
    
    Chorus
    ------
    
    Play twice:
    
              3x
    G|-------------------|---------------------
    D|-------------------|---------------------
    A|--3-3-3-3----------|--3-3-3-3-5-5-5-5-5--
    E|----------3-3-3-3--|---------------------
    
    Then back to intro
    Then verse
    Then chorus
    Then intro
    
    Bridge:
    -------
    
    G-----------------------
    D----------------------- 2x
    A------2-3-2-----0-1-0--
    E--3-3-------1-1--------
    
    G-------------
    D------------- 4x
    A-------------
    E--3-3---1-1--
    
    Then intro (under guitar solo)
    Then chorus
    Then intro
    
    Outro
    -----
    
    G-------------
    D------------- 4x
    A-------------
    E--3-3---1-1--



  8. #98
    Administrador Avatar de edu_fmc
    Data de Ingresso
    Feb 2008
    Idade
    30
    Posts
    21.094

    Padrão Green Day - 80

    Green Day - 80


    Código:
    Intro and Verse:
         *play each measure 4 times
    G|----7|----5|----5|----3|
    D|--5--|--3--|--2--|--1--|
    A|-----|-----|-----|-----|
    E|-----|-----|-----|-----|
         Pre Chorus:
         "Everything she does questions....."
    G|--------7----------|  
    D|-------------------|  
    A|--5-5-5---3-3-3-3-3|  
    E|-------------------|  
          Chorus:
          "If anyone can hear me..."
    G|------------------7---------9-------------------|
    D|------------------------------------------------|
    A|----------5-5-5-5---7-7-7-7---3-3-3-3-3-3-3-3-3-|
    E|--3-3-3-3---------------------------------------|
           "And I end up talkin to myself...."
    G|----------------------------------------7-|
    D|--------------------------------5h7p5-----|
    A|-------------------3-3-3-3-3-3--------5---|     Repeat
    E|--3-3-3-3--1-1-1-1------------------------|
            Back to chorus
      Then...
        "I do not mind if this goes on..."
    G|-------------------7---------------|
    D|-----------------------------------|
    A|--3-3-3-3--5-5-5-5-----------------|
    E|----------------------3-3-3-3-1-3-3|
            Then...
    G|-------------------7----------------------------------------------------7
    D|------------------------------------------------------------------5/7---- 
    A|--3-3-3-3--5-5-5-5-----------------3-3-3-3-3-3-3--5-5-5-5-5-5-5------5---
    E|--------------------3-3-3-3-1-3-3----------------------------------------
         back to verse…  then back to chorus…   
         then outro same as verse



  9. #99
    Administrador Avatar de edu_fmc
    Data de Ingresso
    Feb 2008
    Idade
    30
    Posts
    21.094

    Padrão Green Day - 86

    Green Day - 86


    Código:
    Riff1
    g--------------------------------------------------------------------
    d----------------------------45-8---------------6h8-----------------
    a-666666---------------345-6--------------------------345----------------
    e-------333333444444-4-------------333333444444-----4----------------
    
    Verse
    g------------------------------------------------
    d------------------------------------------------
    a-66666666666------------------------6666666666
    e-------------66666666664444444444--------------
    
    Riff2
    g------------------------------------------------------------------
    d------------------------------------------------------------------
    a----------------------------------6p4-4h6--
    e-66666666444444446666666644444444-------------
    
    Riff1
    Verse
    Riff2
    Riff1
    
    Bridge
    g-------------------------------------------------------------------------
    d----------------------------------------------------55667788---
    a----4-6-4-----6-4----64------4-6-4---------------------------------
    e--6-------6-4------7-----6--6--------6-4---44444-----------------
    
    Riff1
    
    Ending
    g------------------------------------------------------------------
    d------------------------------------------------------------------
    a----4-6-4-------------------------------------------------------
    e-6---------6-4--------------------------------------------------



  10. #100
    Administrador Avatar de edu_fmc
    Data de Ingresso
    Feb 2008
    Idade
    30
    Posts
    21.094

    Padrão Green Day - Ales

    Green Day - Ales


    Código:
    d--333333333333333333--------------------------------------
    a----------------------------------------------------------4444444--
    e--------------------------------444444-----------------------------
    
    
    g------------444444444444444444444444444444444444p2222222222--------
    d-------------------------------------------------------------------
    a---------------------------------------------------------
    e-------------------------------------------------------------------
    
    g-------------------------------------------------------------------
    d444444444444444444---------------------------7777777777777--------
    A------------------------666666666666666---------------------------
    E------------------------------------------------------------------



  11. #101
    Administrador Avatar de edu_fmc
    Data de Ingresso
    Feb 2008
    Idade
    30
    Posts
    21.094

    Padrão Green Day - All by myself

    Green Day - All by myself

    Código:
    first part:  Second part: 
    |-12-R--------|------------| 
    |------12--R--|------------| 
    |-------------|-12--R------| 
    |-------------|-------12-R-|



  12. #102
    Administrador Avatar de edu_fmc
    Data de Ingresso
    Feb 2008
    Idade
    30
    Posts
    21.094

    Padrão Green Day - All The Time

    Green Day - All The Time

    Código:
    Intro and Chorus 
    g--------------|	|-----------------| 
    d--------------|7 	|-----------------| 
    a-7-7--5-------|	|---7-7-7-7-7-7-7-| 
    e----------5-0-|	|-0---------------| 
     
    Verse 
    g--------------------| 
    d--------------------| 
    a---------------555--| 
    e-4h5-5-555-333----0-| 
     
    Bridge 
    g-----------------| 
    d-----------------| 
    a---4h5-4---2h3-2-| 
    e-5-------3-------|



  13. #103
    Administrador Avatar de edu_fmc
    Data de Ingresso
    Feb 2008
    Idade
    30
    Posts
    21.094

    Padrão Green Day - American Idiot

    Green Day - American Idiot


    Código:
    verse 
    g------------- 
    d------------- 
    a----4444----42 
    e4444----4444-- 
     
    Chorus
    g---------------------------------- 
    d---------------------------------- 
    a44444444---------66666666-44444444 
    e--------444444444-----------------



  14. #104
    Administrador Avatar de edu_fmc
    Data de Ingresso
    Feb 2008
    Idade
    30
    Posts
    21.094

    Padrão Green Day - Android

    Green Day - Android


    Código:
    Intro 
    Gb--3h4-------------------------- 
    Db------------------------------- 
    Ab------2-------0-0-0-0---------- 
    Eb--------0-0-0---------2-2-2-2-- 
     
    Gb------------------------------- 
    Db------------------------------- 
    Ab--2-2-2-------0-0-0-0---------- 
    Eb--------0-0-0---------2-2-2-2-- 
     
    Verse 
    Gb---------------------------4-4-----4-4-- 
    Db-----------------------1-2-----0-2------ 
    Ab--2-2-2-2-2-2-2-2--2-4------------------ 
    Eb---------------------------------------- 
     
    Chorus					   X3 
    Gb-------------------------------------------|---------------------------------------------- 
    Db--------4----------------------------------|-------4-------------------------------------- 
    Ab--2-2-2-----------0-0-0-0-------------2h4--|-2-2-2-----------0-0-0-0---------0-0-0-0-0-0-- 
    Eb----------0-0-0-0---------2-2-2-2-2h4------|---------0-0-0-0---------2-2-2-2-------------- 
     
    1st Bridge/Outro 
    Gb------------------------------- 
    Db------------------------------- 
    Ab--2-2-2-------0-0-0-0---------- 
    Eb--------0-0-0---------2-2-2-2-- 
     
    2nd Bridge		      X2 
    Gb------------------------------|--------------- 
    Db------------------------------|--------------- 
    Ab--2----0----------------------|--0-0-0-0-0-0-- 
    Eb------------4----2-2-2-2-2-2--|--------------- 
     
    Solo									    X3 
    Gb------------------4-----------------2--------------------------------------- 
    Db----------------4-----------------2----------------------------------------- 
    Ab--2-2-2-2-2-2-2-----0-0-0-0-0-0-0--------------------------------------2h4-- 
    Eb---------------------------------------4-4-4-4-4-4-4-2-2-2-2-2-2-2-2h4------ 
     
    Gb------------------4-----------------2------------------------------------------- 
    Db----------------4-----------------2--------------------------------------------- 
    Ab--2-2-2-2-2-2-2-----0-0-0-0-0-0-0----------------------------------0-0-0-0-0-0-- 
    Eb---------------------------------------4-4-4-4-4-4-4-2-2-2-2-2-2-2-------------- 
     
    Intro X1 
    Verse X2 
    Chorus X1 
    1st Bridge X2 
    Verse X2 
    Chorus X1 
    1st Bridge X2 
    2nd Bridge X1 
    1st Bridge X4 
    Solo X1 
    Outro X4



  15. #105
    Administrador Avatar de edu_fmc
    Data de Ingresso
    Feb 2008
    Idade
    30
    Posts
    21.094

    Padrão Green Day - Armatage Shanks

    Green Day - Armatage Shanks


    Código:
    Intro
    Gb-----------------------------------------
    Db-----------------------------------------
    Ab--6-6-6-6-6-6-6-6-6-6-6-6-6-6-6-6-5-4-0--
    Eb-----------------------------------------
    
    Verse			       X2
    Gb-------------------------------|------------------------------------------------
    Db-------------------------------|------------------------------------------------
    Ab--0-0-0-0-0-0-4h5-5-5-5-5-5-5--|--------------5-5-5-5-5-5--------------7p5------
    Eb-------------------------------|--2-2-2-2-2-2-------------0-0-0-0-0-0------7p5--
    
    Chorus
    Gb---------------------------------------------------
    Db---------------------------------------------------
    Ab--5-5-5-5-5-5-0-0-0-0-0-0-7-7-7-7-7-7-0-0-0-0-0-0--
    Eb---------------------------------------------------
    
    Gb-----------------------------------------------
    Db-----------------------------------------------
    Ab--5-5-5-5-5-5-0-0-0-0-0-0-0-7-7-7-7-7-7-5-4-0--
    Eb-----------------------------------------------
    
    Bridge			     X2
    Gb-----------------------------|---------------------------------
    Db-----------------------------|--------------7-5-7--------------
    Ab--0-0-0-0-0-0-5--------------|--5-5-5-5-5-5-------7-7-7-7-7-7--
    Eb----------------2-2-2-2-2-2--|---------------------------------
    			     X2
    Gb-----------------------------|-----------------------
    Db-----------------------------|--------------7-5-7----
    Ab--0-0-0-0-0-0-5--------------|--5-5-5-5-5-5-------7--
    Eb----------------2-2-2-2-2-2--|-----------------------
    
    
    Last Chorus
    Gb---------------------------------------------------
    Db---------------------------------------------------
    Ab--5-5-5-5-5-5-0-0-0-0-0-0-7-7-7-7-7-7-0-0-0-0-0-0--
    Eb---------------------------------------------------
    
    Gb-----------------------------------------------------
    Db-----------------------------------------------------
    Ab--5-5-5-5-5-5-0-0-0-0-0-0-0-7-7-7-7-7-7-7-7-7-7-7-7--
    Eb-----------------------------------------------------



Página 7 de 10 PrimeiroPrimeiro ... 345678910 ÚltimoÚltimo

Tags para este Tópico

Permissões de Postagem

  • Você não pode iniciar novos tópicos
  • Você não pode enviar respostas
  • Você não pode enviar anexos
  • Você não pode editar suas mensagens
  •  

Já fez "Like" na nossa página do facebook?

Acompanhe todas as novidades.