Página 7 de 8 PrimeiroPrimeiro ... 678 ÚltimoÚltimo
Resultados 121 a 140 de 141

Tópico: Baixo (Partituras)

  1. #121
    Administrador Avatar de edu_fmc
    Data de Ingresso
    Feb 2008
    Idade
    30
    Posts
    21.004

    Padrão Green Day - Coming Clean

    Green Day - Coming Clean


    Código:
    Intro
    
    G---------
    D---------
    A---------
    E-7-----4-
    
    First verse
    
    G------------------------------------------
    D---------------6-7-5-4-----------2---2----
    A-----------6-7---------5------------------
    E-7-7-7-7-7---------------4-4-4-4---4----4-
    
    First Chorus
    
    G-----------------------------------------
    D---------------------------2-3-2-5-3-2---
    A-------------2-4-2-2-2-2-2-------------3-
    E-2-2-2-2-2-4-----------------------------
    
    2nd and last Verse
    
    G-------------------------------------
    D-------------------------------------
    A-------------7-5-4-------------4-5-7-
    E-7-7-7-7-7-7-------4-4-4-4-4-4-------
    Secrets collecting.....
    
    G------------------------------------------
    D---------------6-7-5-4-----------2---2----
    A-----------6-7---------5------------------
    E-7-7-7-7-7---------------4-4-4-4---4----4-
    Skelotons come to life........
    
    2nd and last Chorus
    
    G--------------------------------------------------
    D-----4---4--3-4-3-4-3-2-------------2-3-2-5-3-2---
    A------------------------3-2-2-2-2-2-------------3-
    E-2-2--2-2-----------------------------------------
    
    Bridge is 2nd Verse then 2nd Chorus.



  2. #122
    Administrador Avatar de edu_fmc
    Data de Ingresso
    Feb 2008
    Idade
    30
    Posts
    21.004

    Padrão Green Day - Deadbeat Holiday

    Green Day - Deadbeat Holiday


    Código:
    intro
    G---------------------------------
    D---------------------------------X1
    A-------------------------2-3-3---
    E--3 wait for a long time----3-3--
    intro2
    G--------------------------------------------
    D--------------------------------------------X1
    A----------22222222-33333333-555554555545-555
    E--33333333----------------------------------
    chorus
    G--------------------------------------
    D--------------------------------------X2
    A-------22222-33333-----33333-----32---
    E--33333-----------33333-----33333--545
    verse
    G----------------------------------
    D----------------------------------X2
    A----2222----3333---------3333-5555
    E3333----3333----3333-0000---------
    pre-chorus
    G-------------
    D-------------X1
    A-2222-3333-3-
    E----------3-3
    intro2 X1
    chorus X2
    bridge 
    G----------------------------------                G------
    D----------------------------------                D------
    A-345-55555-345-555555-345-55555555 X many times   A-345-- 
    E----------------------------------                E------ play it fast until solo ends
    pre-chorus
    intro2
    chorus olay till song finish
    at the bridge there is small pieces u have to fit in to be able to
    sound the same as the cd version



  3. #123
    Administrador Avatar de edu_fmc
    Data de Ingresso
    Feb 2008
    Idade
    30
    Posts
    21.004

    Padrão Green Day - Desensitized

    Green Day - Desensitized

    Código:
    Chorus Riff
    G:-----------------|
    D:-----------------|
    A:--------3-3-3----|
    E:--3-333-------3--|
    
    
    Verse (starts at 0:47)
    G:-----------------------------------------------------------
    D:----------------------------------------------------------- x2
    A:-----------------------------------------------------------
    E:--0--0--0-0-0-0--0-0--0-0-0-0-3--3--3-3-3-3--3-3--3-3-3-3--
    
    G:------------------------------------------------------------
    D:----------2-3--------------------------2-3------------------
    A:------------------------------------------------------------
    E:--5--5--5-----1--1-1--1-1-1-1-5--5--5------1--1-1-1--1-1-0--
    
    G:---------------------------------------------------------|
    D:---------------------------------------------------------|
    A:--3--3--3-3-3--------------------------------------------|
    E:--------------3--3-3-3--3-3-0-1--1--1-1-1-1--1-1--1-1-1--|
    
    
    Chorus ver 2 (1:57)
    G:---------------------------------|
    D:---------------------------------|
    A:--------3--3-3-------------------|
    E:--3-3-3--------3--3-3-3-3-3-3-3--|



  4. #124
    Administrador Avatar de edu_fmc
    Data de Ingresso
    Feb 2008
    Idade
    30
    Posts
    21.004

    Padrão Green Day - Disappearing Boy

    Green Day - Disappearing Boy

    Código:
    Verse
    G-----------------------------------------
    D-----------------------------------------
    A--------------------------------5-5-5-5--
    E--5-5-5-5-5-2-2-2-2-2-3-3-3-3-3----------
    
    2nd Verse
    G-----------------------------------------
    D-----------------------------------------
    A--------------------------------5-5-7-5--
    E--5-5-5-5-5-2-2-2-2-2-3-3-3-3-3----------
    
    Chorus (Play it in order as you see it)
    G----------------------------------------------------------------
    D----------------------------------------------------------------
    A--2-2-2-3-3-3-3---------2h3h5p3--2-2-2-3-3-3-3---------5-5-5-5--
    E----------------3-3-3-3------------------------3-3-3-3----------
    
    G----------------------------------------------------------------
    D----------------------------------------------------------------
    A--2-2-2-3-3-3-3---------2h3h5p3--2-2-2-3-3-3-3------------------
    E----------------3-3-3-3------------------------3-3-3-3-3-3-3-3--
    
    Bass Solo:this sounds cool but the timing is tough
    G--7--7-9--9-11-12-14-12-11-9-11/7---7-7--9-9--11-11-12-11--9---7------7-------------
    D------------------------------------------------------------------------------------
    A------------------------------------------------------------------------------------
    E-------------------------------------------------------------------------5-5-5-5-5--
    
    Verse X4
    2nd Verse X1
    Chorus X1
    2nd Verse X2
    Verse X4
    Chorus X1
    Bass Solo X1
    2nd Verse X4
    Chorus X1



  5. #125
    Administrador Avatar de edu_fmc
    Data de Ingresso
    Feb 2008
    Idade
    30
    Posts
    21.004

    Padrão Green Day - Do Da Da

    Green Day - Do Da Da

    Código:
    Intro         3
    G|------------|-----7-----9-|
    D|------------|-------------|
    A|------------|-5-5---7-7---|
    E|-5--0-0-0-0-|-------------|
    
    Verse
    G|---------------------------------------------------
    D|---------------------------------------------------
    A|-------------7-7-7-7-7-0-5-5-5-5-5-----------7-7-7-
    E|-5-5-5-5-5-0-----------------------0-5-5-5-0-------
    
      -------------------------------------------------9-|
      -----------------------------------------7---------|
      -------------7-7-7-7-7-0-5-5-5-5-5-----------7-7---|
      -5-5-5-5-5-0-----------------------0-5-5---0-------|
    
    Chorus
    G|-------------------------------------------9-
    D|-------------------------------------7-------
    A|-----------5-5-5-5-5-------------------7-7---
    E|-2-2-2-2-0-----------0-2-2-2-2-0-5-5---------
                                                   3
      ---------------------------------|-----------|-----|
      ---------------------------------|-----------|-----|
      -----------5-5-5-5-5-------------|-----7-7-7-|-5h7-|
      -2-2-2-2-0-----------0-2-2-2-2-0-|-5-0-------|-----|



  6. #126
    Administrador Avatar de edu_fmc
    Data de Ingresso
    Feb 2008
    Idade
    30
    Posts
    21.004

    Padrão Green Day - Dominated Love Slave

    Green Day - Dominated Love Slave


    Código:
    Verse:
    G----------------------------------------
    D----------------------------------------
    A----2--2---7--7---2--2---9--9---2-0-----
    E--0--0---5--5---0--0---7--7---------4-2-
    
    G------------------------------------------
    D------------------------------------------
    A----2--2---7--7---2--2---9--9---7/9-7-----
    E--0--0---5--5---0--0---7--7-----------9-7-
    
    G-------------------
    D-------------------
    A----2--7--2------2-
    E--0--5--0---0--0---
    
    Chorus
    G------------------------------
    D------------------------------
    A----7--7---2--2---9--9---2--2-
    E--5--5---0--0---7--7---0--0---
    Repeat 1
    
    Guitar solo(is the same as the verse)
    then chorus 
    
    Outro:
    G--------------------------------------
    D--------------------------------------
    A--------------------------7-----------
    E--7-7-7-7-7-7-7-7-7-7-7-----7-9-7-3-0-



  7. #127
    Administrador Avatar de edu_fmc
    Data de Ingresso
    Feb 2008
    Idade
    30
    Posts
    21.004

    Padrão Green Day - Don Leave Me

    Green Day - Don Leave Me

    Código:
    Intro: 
    |----------------------------------|
    |----------------------------------|
    |-R-13/12/11-10/9/8-7/6/5-4/3/2----|
    |----------------------------------|
    
    Verse:
    |----------------------------------|
    |----------------------------------|
    |-2-2-2-2-0-0-0-0-5-5-5-2-2-2-2----|
    |----------------------------------|
    
    Chorus:  		          After 1st chorus:
    |----------------------------------|-----4--|
    |----------------------------------|---4----|
    |-----------------1-1-1-1-1-1-1-1--|-2------|
    |-2-2-2-2-2-2-2-2------------------|--------|



  8. #128
    Administrador Avatar de edu_fmc
    Data de Ingresso
    Feb 2008
    Idade
    30
    Posts
    21.004

    Padrão Ximena Sariñana - Cuento

    Ximena Sariñana - Cuento


    Código:
    Intro 
    G------------------------------------------ 
    D------------------------------------------ 
    A-3h5--4545--3----------------------------- 
    E-------------5--4545--5--4545--5--4545---- 
    
    G------------------------------------------ 
    D------------------------------------------ 
    A-3h5--4545--3h5--4545—3------------------- 
    E-----------------------5--4545--5--4545--- 
    
    Cuanto se puede... 
    G------------------------------------------ 
    D------------------------------------------ 
    A-3h5--4545--3h5--4545—3------------------- 
    E-----------------------5--4545--5--4545---(x2) 
    
    G------------------------------------------ 
    D------------------------------------------ 
    A------------------------------------------ 
    E—3--2323--3--2323---5--4545--5--4545------(x2) 
    
    puede que te quiera.... 
    G------------------------------------------ 
    D------------------------------------------ 
    A-5--4545--5--4545—3----------------------- 
    E-----------------------5--4545--5--4545---(x2) 
    
    G------------------------------------------ 
    D------------------------------------------ 
    A------------------------------------------ 
    E—3--2323--3--2323---5--4545--5--4545------(x2) 
    
    me encimo, afino, termino..... 
    G------------------------------------------ 
    D------------------------------------------ 
    A-5--4545--5--4545—3----------------------- 
    E-----------------------5--4545--5--4545---(x2) 
    
    G------------------------------------------ 
    D------------------------------------------ 
    A------------------------------------------ 
    E—3--2323--3--2323---5--4545--5--4545------(x2) 
    
    puede que te quiera... 
    G------------------------------------------ 
    D------------------------------------------ 
    A-5--4545--5--4545—3----------------------- 
    E-----------------------5--4545--5--4545---(x2) 
    
    G------------------------------------------ 
    D------------------------------------------ 
    A------------------------------------------ 
    E—3--2323--3--2323---5--4545--5--4545------(x2) 
    
    intro(x2)



  9. #129
    Administrador Avatar de edu_fmc
    Data de Ingresso
    Feb 2008
    Idade
    30
    Posts
    21.004

    Padrão 1 Brick Short - Cream of Mushroom Soup

    1 Brick Short - Cream of Mushroom Soup

    Código:
    Main/Verse/Chorus: Play as many times as needed.
              
              G----------5-7-5-------------------------3-5-3---------------3-5--|
              D--0-0-5-7-----------------5--7--0-0-3-5-----------------3-5------|
              A------------------0-0-5-7-----------------------0-0-3-5----------|
              E-----------------------------------------------------------------|
              
              Interlude: The guitar will play this riff once, then come in.
              
              G--------|----------------------------|
              D-GUITAR-|----------------------------|
              A--RIFF--|---555----------------------|
              E--------|--------5550-7770-333-------|



  10. #130
    Administrador Avatar de edu_fmc
    Data de Ingresso
    Feb 2008
    Idade
    30
    Posts
    21.004

    Padrão 1 Brick Short - Here With Me

    1 Brick Short - Here With Me

    Código:
    Verse:
              G-----------------------------------------------------------|
              D-----------------------------------------------------------|
              A----------2-22-222--3-3-333--------------------------------|
              E-3-3-333---------------------3-33-333----------------------|
              
              Chorus: (really easy!)
              G-----------------------------------------------------------|
              D-----------------------------------------------------------|
              A----------------------------------------------------33-----|
              E-5-5-5-55555-5-5--3-3-3-33333-3-3--1-1-1-11111-1-1------33-|
              
              Interlude: (intro riff on bass plus chorus)
              G-----------------------------------------------------------|
              D--------0-3-2--------0-3-2--------0-3-2--------------------|
              A-5-7-3-----------7-3----------7-3-------3-3-3-333----------|
              E---------------3------------1---------------------333------|



  11. #131
    Administrador Avatar de edu_fmc
    Data de Ingresso
    Feb 2008
    Idade
    30
    Posts
    21.004

    Padrão Scorpions - Big City Nights

    Código:
    Riff A Verse 1  "When the day light...." 
     
    ---------------------------------------------------- 
    ---------------------------------------------------- 
    -----------------------------3--x--3--3---5--x--5--5 
    ---5--x--5--5---1--x--1--1-------------------------- 
     
     
    ---------------------------------------------------- 
    ---------------------------------------------------- 
    -----------------------------3--x--3--3---7--x--7--7 
    ---5--x--5--5---1--x--1--1-------------------------- 
     
    A musica inteira é preticamente issu... no muda aki 
     
    "There is no..... " 
     
    -------|-------|-------|-------|------------- 
    -------|-------|-------|-------|------------- 
    -------|-------|---3---|---2---|------------- 
    ---0---|---3---|-------|-------|---3--2--0---



  12. #132
    Administrador Avatar de edu_fmc
    Data de Ingresso
    Feb 2008
    Idade
    30
    Posts
    21.004

    Padrão Dire Straits - Down To The Waterline

    Código:
    common time(4/4) 
    standard tuning(EADG) 
     
    INTRO: 
     
    |--------------|-------------|-----------|------------| 
    |*-------------|-------------|-----------|-----------*| 
    |*-------------|-----------0-|-2---2---0-|-2---2---0-*| 
    |--3---3---0-2-|-3---3---3---|-----------|------------| 
       1 2 & 3 4 &   1 2 & 3 4 &   1 2 & 3 4   1 2 & 3 4 
     
    VERSE: 
                                                       (x2) 
    |------------|-------------|-------------|--------------| 
    |*-----------|-------------|-------------|-------------*| 
    |*-.---9-----|-.-.-----7-5-|-----------9-|-----------9-*| 
    |--7---------|-5-5---7-----|-7---7---7---|-7---7---7----|  
       1 2 & 3 4   1 & 2 & 3 4   1 2 & 3 4 &   1 2 & 3 4 & 
     
    |-------4-2-|-----------|---------|---------|-----------| 
    |-----4-----|-4-----4-2-|---------|---------|-----------| 
    |-2---------|-----4-----|-0-4-5-6-|-7-----0-|-2---2---0-| 
    |-----------|-----------|---------|---------|-----------| 
      1 2 & 3 4   1 2 & 3 4   1 2 3 4   1 2 3 4   1 2 & 3 4 
     
    |-----------| 
    |-----4-/-2-| 
    |-2---------| 
    |-----------| 
      1 2 & 3 4 
     
    LEAD 1: 
     
    |-------------|-------------|-----------|-----------|-------------| 
    |-------------|-------------|-----------|-----------|-------------| 
    |-------------|-----------0-|-2---2---0-|-2---2---0-|-----------2-| 
    |-3---3---0-2-|-3---3---3---|-----------|-----------|-3---3---3---| 
      1 2 & 3 4 &   1 2 & 3 4 &   1 2 & 3 4   1 2 & 3 4   1 2 & 3 4 & 
     
    |-----------|-----------|-----------| 
    |-----------|-----------|-----------| 
    |-0---0-----|-2---2---0-|-2---2---0-| 
    |-----------|-----------|-----------| 
      1 2 & 3 4   1 2 & 3 4   1 2 & 3 4 
     
    LEAD 2: 
     
    |-------------|-------------|-----------|-----------|-------------| 
    |-------------|-------------|-----------|-----------|-------------| 
    |-------------|-----------0-|-2---2---0-|-2---2---0-|-----------2-| 
    |-3---3---0-2-|-3---3---3---|-----------|-----------|-3---3---3---| 
      1 2 & 3 4 &   1 2 & 3 4 &   1 2 & 3 4   1 2 & 3 4   1 2 & 3 4 & 
     
    |-----------| 
    |-----------| 
    |-0---0-----| 
    |-----------| 
      1 2 & 3 4  
     
    SOLO: 
     
    |-----------|---------------|-------------|-----5---3-2---| 
    |-----------|---------------|-------------|-------------5-| 
    |-7---/-5-0-|-4---4-----2-0-|-3---3---2---|-3-------------| 
    |-----------|---------2-----|-----------2-|---------------| 
      1 2 3 4 &   1 2 & 3 & 4 &   1 2 & 3 4 &   1 2 & 3 & 4 & 
     
    |-------------|-----------|-------------|-----5---3-2---| 
    |-------------|-5---5---4-|-------------|-------------5-| 
    |---------0-5-|-----------|-3---3-----2-|-3-------------| 
    |-3---3-------|-----------|---------3---|---------------| 
      1 2 & 3 4 &   1 2 & 3 4   1 2 & 3 4 &   1 2 & 3 & 4 & 
     
    |-------------|-----------|-----------|-----------|-----------| 
    |-------------|---------7-|---------7-|-----------|-----------| 
    |-5---5---0-3-|-5---5-----|-0---0-----|-0---0-----|-----------| 
    |-------------|-----------|-----------|-----------|-2---2---0-| 
      1 2 & 3 4 &   1 2 & 3 4   1 2 & 3 4   1 2 & 3 4   1 2 & 3 4 
     
    |---------------|-----------|-----------| 
    |---------------|-----------|-----------| 
    |---------------|-----------|-0---0-----| 
    |-2---2---2-3-5-|-3---3-----|-----------| 
      1 2 & 3 & 4 &   1 2 & 3 4   1 2 & 3 4



  13. #133
    Administrador Avatar de edu_fmc
    Data de Ingresso
    Feb 2008
    Idade
    30
    Posts
    21.004

    Padrão Dire Straits - communique

    Código:
    Intro (rest for 4 bars) 
    |--------|--------|--------|----------|---------|--------|--------| 
    |-------5|7-------|--------|--------10|--------5|7-------|--------| 
    |--------|-0-----7|--------|------10--|12-------|-0----77|--------| 
    |-5------|--------|5-------|----------|---------|--------|5-------| 
     
    |----------|---------|--------|--------|--------| 
    |--------10|---------|--------|7-------|-----5-7| 
    |------10--|12-------|-7----77|----7---|--------| 
    |----------|---------|---5----|------5-|--------| 
     
    Verse 
    |--------------------------------------------------| 
    |------------|-------------------------------------| 
    |-2--------2-|-----------|-2--------2-0|-----------| 
    |----3--5----|-3-------5-|----3-5------|-3-------5-| 
     
    Chorus 
    |-----------------------|-----------------------|------------|------------| 
    |-----------------------|----------------------.|------------|--9--"989"--| 
    |-----------------5-----|----------------5-----.|--------2-0-|------------| 
    |-3--3-2--2-0--0-2--X-2-|3--3-2--2-0--0-2--X-2--|-3--3-3-----|------------| 
     
    Post Chorus 
    |--------|--------|--------|----------|---------|--------|---------|---------| 
    |-------5|7-------|--------|--------10|---------|--------|--7------|-----5-7-| 
    |--------|-0-----7|--------|------10--|12-------|-7------|-7--7----|---------| 
    |-5------|--------|5-------|----------|---------|---5----|-----5---|---------| 
     
    note that "989" is the funky vibrato 
     
    Song structure 
     
    Intro 
    Verse 1 
    Chorus 1 
    Post Chorus 
    Verse 2 
    Chorus 2 
    Post Chorus 
    Bridge (like intro with some variations, see post Chorus) 
    Verse 3 (more rhythmical) 
    Chorus 3 
    Outro (like intro with variations, repeat and fade)



  14. #134
    Administrador Avatar de edu_fmc
    Data de Ingresso
    Feb 2008
    Idade
    30
    Posts
    21.004

    Padrão Dire Straits - Money for nothing

    Código:
    verso:						     
    |--------------|---------------|-------------|--------------| 
    |*-------------|---------------|-------------|-------------*| 
    |*-------------|-------3-1-----|-------------|-1---0-3-----*| 
    |--3---3-3---3-|-3---0-----1-2-|-3---3-3---3-|---------0-1--| 
     
    |-------------| 
    |-----5-3-----| 
    |---------5-3-|   
    |-1-----------| 
      
    Chorus: 
    |---------|---------------|---------|---------|-------------| 
    |-1---1---|---------------|-1---1---|-3-------|-------------| 
    |---------|-1---1-0-1-3-0-|---------|---------|-------------| 
    |---------|---------------|---------|-----1---|-3---3-3---3-| 
     
    |---------------|-----------|-----------|---------|---------| 
    |---------------|-----------|---------1-|-2---2---|-2---2---| 
    |-------------2-|-3---3-3-4-|-5---5-5---|---------|---------| 
    |-3---3-0-3-5---|-----------|-----------|---------|---------|



  15. #135
    Administrador Avatar de edu_fmc
    Data de Ingresso
    Feb 2008
    Idade
    30
    Posts
    21.004

    Padrão Dire Straits - Once Upon A Time In The West

    Código:
    The intro is played by guitar only, then the verse goes like this: 
     
      4/4            3/4               4/4            3/4 
    G|--------------|-----------------|--------------|-----------------|- 
    D|--------------|-----------------|--------------|-----------------|- 
    A|--------------|------7----55----|--------------|------7----55----|- 
    E|5-----55-----5|5--8------5----8-|5-----55-----5|5--8------5----8-|- 
     
      3/4        4/4               3/4              4/4 
    G|----------|-----------------|----------------|------------------|- 
    D|----------|-----------------|----------------|------------------|- 
    A|--------5-|---5-----------23|5---5x75--------|775-3-----3--33---|- 
    E|5----55--5|3-----3--33---3--|----------5----5|---5---3--------75|- 
     
                                            ____1.+2._______ 
      4/4              4/4                  4/4             | 
    G|----------------|----------2---------|----------------|- 
    D|----------------|------7-------------|----------------|- 
    A|----------------|5--8----------2--5-5|----------------|- 
    E|5--8--5--55--558|-----------3--------|5--8--5--55--030|- 
     
      _____3._________ 
      4/4             | 
    G|----------------|- 
    D|----------------|- 
    A|----------------|- 
    E|5--8--5--55-5785|- 
     
     
    repeat the verse twice (very small variations) then into the bridge: 
      4/4              4/4              6/4 
    G|----------------|----------------|-----------------|- 
    D|----------------|33--33--33--33--|-----------------|- 
    A|55--55--55--55-3|---3---3---3----|-----------------|- 
    E|---5---5---5----|---------------3|55-133-01-----030|-



  16. #136
    Administrador Avatar de edu_fmc
    Data de Ingresso
    Feb 2008
    Idade
    30
    Posts
    21.004

    Padrão Dire Straits - Romeo and Juliet

    Código:
    Intro
    |------|------|------|------|
    |------|------|------|------|
    |------|-1----|-3----|-1----|
    |-1----|------|------|------|
    
    Verse
    |-----------|------------|----------|-----------|--------|----------|-------|---------------|
    |-----------|------------|----------|-----------|--------|----------|-------|---------------|
    |--------3--|-5-------3--|--------3-|-5--5-1--1-|-3----1-|-3--------|-1-----|-3-3-3-3-3-3-3-|
    |-1---------|------------|-1--------|-----------|--------|-----1----|-------|---------------|
    
    Chorus
    |-----------|-----------------|----------------|-------------|
    |-----------|-----------------|----------------|-------------|
    |------3----|-5---5-3-1---1-3-|-------3-333----|-5--5-3-1----|
    |-1--1----5-|-----------------|-1---1--------5-|-----------0-|
    
    |-------------|-----------|--------------|-------------|
    |-------------|-----------|--------------|-------------|
    |-----3-1---3-|-5----1----|------------0-|-1--1-3-5--3-|
    |-1-----------|-----------|-3--3--3--3---|-------------|
    
    Solo
    |-----------|---------|
    |-----------|---------|
    |-1---1---1-|-3---3---|
    |-----------|---------|



  17. #137
    Administrador Avatar de edu_fmc
    Data de Ingresso
    Feb 2008
    Idade
    30
    Posts
    21.004

    Padrão Dire Straits - Single Handed Sailor

    Código:
    Intro 
    |---------|----------|---------|----------------------| 
    |---------|----------|---------|------------X-5-3-5-3-| 
    |-5---3-3-|--5---3-5-|--3----3-|----------------------| 
    |---5-----|-5--5-----|-3--3-1--|-11--3--333-----------| 
     
    |---------|----------|---------|------------------------| 
    |---------|----------|---------|------------3-5-3-------| 
    |-5---3-3-|--5---3-5-|--3----3-|------------------5---5-| 
    |---5-----|-5--5-----|-3--3-1--|-01--3--333---------5---| 
     
    Verse 
    |------|------|------|-------|-------|------------|------| 
    |------|------|------|-------|-------|------3-5---|------| 
    |--5-5-|--3-1-|--3---|---3-5-|---5-3-|--3-1-------|--3-5-| 
    |-5----|-3----|-3--1-|-5-----|-5-----|-3--------1-|-5----| 
     
    Pre-Chorus 
    |------|-------|------|---2------|---------|-------------| 
    |------|-------|------|--3-3-2---|---------|-------------| 
    |------|--/12--|--\5--|-5------1-|-11-1--3-|-3-33----3-5-| 
    |-3--5-|-------|------|----------|---------|--3--3-5-----| 
     
    |-------|-------|-------|------|-------|--------|---------| 
    |-------|-------|-------|------|-------|--------|---------| 
    |---5-3-|---3-1-|---3---|------|--/10--|--------|-----1-3-| 
    |-5-----|-3-----|-3---1-|-1--3-|-------|-\6-66--|-1-3-----| 
     
    |------|--------|---------|-------|------------|---------| 
    |------|--------|---------|-------|------------|---------| 
    |--3-4-|----3-5-|---55--3-|-----1-|-11--3-3-33-|-----3-5-| 
    |-3----|-3-5----|-5-------|-5-1---|--------3---|-3-5-----| 
     
    Chorus 
    |---|-------|-------|-------|------|-------|------| 
    |---|-------|-------|-------|------|-------|------| 
    |-5-|---5-3-|---3-1-|---3---|------|--/10--|--\1--| 
    |---|-5-----|-3-----|-3---1-|--\3--|-------|------| 
     
    Song structure 
     
    Intro 
    Verse X4 
    Pre-Chorus 
    Chorus 
    Intro 
    Verse X2 
    Pre-Chorus 
    Chorus 
    Intro 
    Guitar Solo 
    (like Intro to repeat with little variations and fade)



  18. #138
    Administrador Avatar de edu_fmc
    Data de Ingresso
    Feb 2008
    Idade
    30
    Posts
    21.004

    Padrão Dire Straits - Six Blade Knife

    Código:
    Riff 1 
    |------------------| 
    |------------------| 
    |-0--x0--x3--x5--x-| 
    |------------------| 
     
    Bridge 
    |---------------------------------------------------------| 
    |---3-5-7-------x3-----------3-5-7------------------3-5-7-| 
    |-5-------5---3----5---x5--5-------5--3---5555-x555-------| 
    |--------------------3------------------3-----------------| 
     
    Then play the Riff 1 again 
     
    Riff 2 
    |------------------| 
    |----------------7-| 
    |-0--x0--x3--5-7---| 
    |------------------| 
     
    repeat and fade



  19. #139
    Administrador Avatar de edu_fmc
    Data de Ingresso
    Feb 2008
    Idade
    30
    Posts
    21.004

    Padrão Dire Straits - Sultans of Swing

    Código:
    Afinação : E A D G 	Tempo: 4/4 
     
     |       |       |       |        |       |       |       |         
    |--------------------------------|--------------------------------| 
    |--------------------------------|--------------------------------| 
    |5-----------5---5---------------|5-----------5---3-------3-------| 
    |--------------------------------|--------------------5-----------| 
     
     |       |       |       |        |       |       |       |         
    |--------------------------------|--------------------------------| 
    |--------------------------------|--------------------------------| 
    |5-----------5---5---------------|5---------------5-------3-------| 
    |--------------------------------|----------------------------5---| 
     
     |       |       |       |        |       |       |       |         
    |--------------------------------|--------------------------------| 
    |--------------------------------|--------------------------------| 
    |5-----------5---5---------------|5-----------5---3-------3-------| 
    |--------------------------------|--------------------5-----------| 
     
     |       |       |       |        |       |       You get a -       
    |--------------------------------|--------------------------------| 
    |--------------------------------|--------------------------------| 
    |5-----------5---5---------------|5-----------5---3-------3-------| 
    |--------------------------------|--------------------5-----------| 
     
     shiver in the...|       |        |       |       |       |         
    |--------------------------------|--------------------------------| 
    |--------------------------------|--------------------------------| 
    |5-----------5---5-----------5---|3-----------3---1-----------1---| 
    |--------------------------------|--------------------------------| 
     
     |       |       |       |        |       |       |       |         
    |--------------------------------|--------------------------------| 
    |--------------------------------|--------------------------------| 
    |0-----------0---0-----------0---|0---------------0-----------3---| 
    |--------------------------------|--------------------------------| 
     
     |       |       |       |        |       |       |       |         
    |--------------------------------|--------------------------------| 
    |--------------------------------|--------------------------------| 
    |5-----------5---5-----------5---|3-----------3---1---------------| 
    |--------------------------------|--------------------------------| 
     
     |       |       |       |        |       |       |       |         
    |--------------------------------|--------------------------------| 
    |--------------------------------|--------------------------------| 
    |0-----------0---0-----------0---|0-----------0---0-----------3---| 
    |--------------------------------|--------------------------------| 
     
     |       |       |       |        |       |       |       |         
    |--------------------------------|--------------------------------| 
    |3-----------3-------------------|3-----------3-----------0-------| 
    |------------------------3---5---|----------------------------0---| 
    |--------------------------------|--------------------------------| 
     
     |       |       |       |        |       |       |       |         
    |--------------------------------|--------------------------------| 
    |--------------------------------|--------------------------------| 
    |3-----------3-------------------|3-----------3-----------0-------| 
    |------------------------3---5---|----------------------------1---| 
     
     |       |       |       |        |       |       |       |         
    |--------------------------------|--------------------------------| 
    |--------------------------------|--------------------------------| 
    |1-----------1-------------------|1-----------1-------------------| 
    |------------------------3---1---|------------------------3---1---| 
     
     |       |       |       |        |       |       |       |         
    |--------------------------------|--------------------------------| 
    |--------------------------------|--------------------------------| 
    |5---------------5-------3-------|5-----------1-------1-----------| 
    |----------------------------5---|----------------------------1---| 
     
     |       |       |       |        |       |       Well now|you -    
    |--------------------------------|--------------------------------| 
    |--------------------------------|--------------------------------| 
    |3-----------3---3-----------3---|3-----------3---------------0---| 
    |--------------------------------|--------------------1---3-------| 
     
     step inside..   |       |        |       |       |       |         
    |--------------------------------|--------------------------------| 
    |--------------------------------|--------------------------------| 
    |5-----------5---5-----------5---|3-----------3---1-----------1---| 
    |--------------------------------|--------------------------------| 
     
     |       |       |       |        |       |       |       |         
    |--------------------------------|--------------------------------| 
    |--------------------------------|--------------------------------| 
    |0-----------0---0-----------0---|0-----------0---0-----------3---| 
    |--------------------------------|--------------------------------| 
     
     |       |       |       |        |       |       |       |         
    |--------------------------------|--------------------------------| 
    |--------------------------------|--------------------------------| 
    |5-----------5---5-----------5---|3-----------3---1-----------1---| 
    |--------------------------------|--------------------------------| 
     
     |       |       |       |        |       |       |       |         
    |--------------------------------|--------------------------------| 
    |--------------------------------|--------------------------------| 
    |0-----------0---0-----------0---|0-----------0---0-----------0---| 
    |--------------------------------|--------------------------------| 
     
     |       |       |       |        |       |       |       |         
    |--------------------------------|--------------------------------| 
    |3-----------3-----------0-------|--------------------------------| 
    |----------------------------3---|--------------------------------| 
    |--------------------------------|1-----------1---------------3---| 
     
     |       |       |       |        |       |       |       |         
    |--------------------------------|--------------------------------| 
    |--------------------------------|--------------------------------| 
    |3-----------3-----------1-------|3-----------3-------------------| 
    |----------------------------1---|------------------------1---3---| 
     
     |       |       |       |        |       |       |       |         
    |--------------------------------|--------------------------------| 
    |--------------------------------|--------------------------------| 
    |1-----------1-------------------|1-----------1-------1-------3---| 
    |------------------------1---3---|------------------------3-------| 
     
     |       |       |       |        |       |       |       |         
    |--------------------------------|--------------------------------| 
    |--------------------------------|--------------------------------| 
    |5-----------5---5-------3-------|5-----------1-------1-----------| 
    |----------------------------5---|----------------------------3---| 
     
     |       |       Way on down     south    |       |       |         
    |--------------------------------|--------------------------------| 
    |--------------------------------|--------------------------------| 
    |3-----------3---3---------------|3-----------1-------1-----------| 
    |--------------------------------|----------------------------3---| 
     
     |       |       Way on down     south    |       |       |         
    |--------------------------------|--------------------------------| 
    |--------------------------------|--------------------------------| 
    |3-----------3---3-----------3---|3-----------3---------------0---| 
    |--------------------------------|--------------------1---3-------| 
     
     London town     |       |        |       |       |       |         
    |--------------------------------|--------------------------------| 
    |--------------------------------|--------------------------------| 
    |5-----------5---5---3-------1---|------------1-----------1-------| 
    |--------------------------------|----------------1---3-----------| 
     
     |       |       |       |        |       |       |       |         
    |--------------------------------|----------------------------0---| 
    |--------------------------------|--------------------------------| 
    |3-----------3-----------1-------|3-----------3-----------1-------| 
    |----------------------------3---|--------------------------------| 
     
     |       |       |       |        |       |       |       |         
    |--------------------------------|--------------------------------| 
    |--------------------------------|--------------------------------| 
    |5-----------5---5---3-------1---|------------1-----------1-------| 
    |--------------------------------|----------------1---3-------3---| 
     
     |       |       |       |        |       |       |       |         
    |--------------------------------|--------------------------------| 
    |--------------------------------|--------------------------------| 
    |3-----------3-----------1-------|3-----------3-----------1---3---| 
    |----------------------------3---|--------------------------------| 
     
     |       |       |       |        |       |       |       |         
    |--------------------------------|--------------------------------| 
    |--------------------------------|--------------------------------| 
    |5-----------5---5-----------5---|3-----------3---1-----------0---| 
    |--------------------------------|--------------------------------| 
     
     |       |       |       |         
    |--------------------------------| 
    |--------------------------------| 
    |0-----------0---0-----------0---| 
    |--------------------------------|



  20. #140
    Administrador Avatar de edu_fmc
    Data de Ingresso
    Feb 2008
    Idade
    30
    Posts
    21.004

    Padrão Dire Straits - Walk of Life

    Código:
    Intro: 
     
    |---------|---------|---------|---------| 
    |---------|---------|---------|---------| 
    |-7-------|-------4-|---------|---------| 
    |-------4-|-5-------|-7-----4-|-5---7---| 
      1 2 3 4   1 2 3 4   1 2 3 4   1 2 3 4 
     
    Interlude Riff: 
     
    |----------------|-----------------|-----------------| 
    |*---------------|-----------------|-----------------| 
    |*-------------7-|-------7-------7-|-------9-------9-| 
    |--0-7-0---0-7---|-5---5---5---5---|-7---7---7---7---| 
       1 2 3 & a 4 &   1 & a 2 3 & a 4   1 & a 2 3 & a 4 
     
    |------------------| 
    |-----------------*| 
    |-------7---------*| 
    |-5---5---7-5-4-2--| 
      1 & a 2 3 & 4 & 
     
    Verse: 
            (x3) 
    |-----------|-----------------| 
    |*---------*|-----------------| 
    |*---------*|-----------------| 
    |--0-7-0-7--|-0-7---7-7-0-2-4-| 
       1 2 3 4    1 2 & a 3 & 4 & 
     
    Chorus: 
     
    |-----------------|-------------------|-------------|---------| 
    |-----------------|-------------------|-------------|---------| 
    |-------7-------7-|-------------------|-----------7-|-----7---| 
    |-5---5---5---5---|-0---0-7-0---0-2-4-|-5-0-5---5---|-0-------| 
      1 & a 2 3 & a 4   1 & a 2 3 & a 4 &   1 2 3 & a 4   1 2 3 4 
     
    |-------------------|-----------------|-------------------| 
    |-------------------|-----------------|-------------------| 
    |-------------------|---------------7-|-------------------| 
    |-0---0-4-5-7---7-7-|-0---0-7-5---5---|-0---0-4-5-7---7-7-| 
      1 & a 2 & 3 & a 4   1 & a 2 3 & a 4   1 & a 2 & 3 & a 4 
     
    |-----------------| 
    |-----------------| 
    |-------7---------| 
    |-5---5---7-5-4-2-| 
      1 & a 2 3 & 4 &



Página 7 de 8 PrimeiroPrimeiro ... 678 ÚltimoÚltimo

Tags para este Tópico

Permissões de Postagem

  • Você não pode iniciar novos tópicos
  • Você não pode enviar respostas
  • Você não pode enviar anexos
  • Você não pode editar suas mensagens
  •  

Já fez "Like" na nossa página do facebook?

Acompanhe todas as novidades.