Resultados 1 a 6 de 6

Tópico: Xzibit

  1. #1
    Administrador Avatar de edu_fmc
    Data de Ingresso
    Feb 2008
    Idade
    30
    Posts
    21.052

    Padrão Xzibit

    Colocar aqui as partituras dos Xzibit



  2. #2
    Administrador Avatar de edu_fmc
    Data de Ingresso
    Feb 2008
    Idade
    30
    Posts
    21.052

    Padrão Xzibit - Multiply

    Código:
    intro part 1  
    g|----------------------------------------- 
    d|----------------------------------------- 
    a|-0--0-0-0-3--0-0-0--0-3-5-3-0--0-5-7-5-0- 
    e|----------------------------------------- 
     
    intro part 2 
    g|------------------------------------- 
    d|------------------------------------- 
    a|-0-0-0--0-0-0--0-3-5-3-0---0-5-7-5-0- 
    e|-------------------------0----------- 
     
    rest of the song 
    riff 1 
    g|-------------------------------------- 
    d|-------------------------------------- 
    a|-0-0-0-3--0-0-0--0-3-5-3-0--0-5-7-5-0- 
    e|-------------------------------------- 
    riff 2 
    g|------------------------------------- 
    d|------------------------------------- 
    a|-0-0-0--0-0-0--0-3-5-3-0---0-5-7-5-0- 
    e|-------------------------0----------- 
     
     
    intro part 1  x1 
    intro part 2  x1 
     
    rest of the song 
    riff 1  x1 
    riff 2  x1



  3. #3
    Administrador Avatar de edu_fmc
    Data de Ingresso
    Feb 2008
    Idade
    30
    Posts
    21.052

    Padrão Xzibit - X (ver. 1)

    Código:
    g--------------------------------------------------------- 
    D--------------------------------------------------------- 
    A----------------------5----3----------------------------- 
    E---5---35-----75----3---87---6-3-5----------------------- 
    B---------------------------------------------------------



  4. #4
    Administrador Avatar de edu_fmc
    Data de Ingresso
    Feb 2008
    Idade
    30
    Posts
    21.052

    Padrão Xzibit - X (ver. 2)

    Código:
    Tuning:D A D G B E (low to high)  
     
    Mainpart (Piano): 
    --------------------------------- 
    --------------------------------- 
    -2---2---2---2---2---2---2---2--- 
    -2---2---2---2-2-2---2---2---2-2- 
    -0---0---0---0-2-0---0---0---0-2- 
    ---------------2---------------2- 
     1 + 2 + 3 + 4 + 1 + 2 + 3 + 4 + 
     
    --------------------------------- 
    --------------------------------- 
    -2---2---2---2------------------- 
    -2---2---2---2-2----------------- 
    -0---0---0---0-2-5---3-2-3---3-2- 
    ---------------2----------------- 
     1 + 2 + 3 + 4 + 1 + 2 + 3 + 4 + 
     
    The cool calisynth in the background 
    -----------------------------------| 
    -----------------------------------| 
    --------------9-10-9---------------| 
    5/7---------------------------10-9-| 
    -----------------------------------| 
    -----------------------------------| 
      1 + 2 + 3 + 4 +  1 + 2 + 3 + 4 + 
     
                         |-only-at-chorus-| 
    --------------------------------------| 
    --------------------------------------| 
    --------------9-10-9---7---7---7-10---| 
    --7----------------------10-----------| 
    --------------------------------------| 
    --------------------------------------| 
      1 + 2 + 3 + 4 +  1 + 2 + 3 + 4 +



  5. #5
    Administrador Avatar de edu_fmc
    Data de Ingresso
    Feb 2008
    Idade
    30
    Posts
    21.052

    Padrão Xzibit - X (ver. 3)

    Código:
    Standard Tuning    
    This song is very easy and fun to play!!    
    Listen to the song for the timing    
        
        
    -------------------------------------------------------------------------------     
    -------------------------------------------------------------------------------     
    -------------------------------------------------------------------------------     
    -------------------------------------7--5-4---5-4---------------    
    --7-7-7--7-7-7-7-7--7-7-7--7-7-7-7---5--3-2---3-2-5------------    
    --5-5-5--5-0-5-5-5--5-0-5--5-5-5-0----------------3------------



  6. #6
    Administrador Avatar de edu_fmc
    Data de Ingresso
    Feb 2008
    Idade
    30
    Posts
    21.052

    Padrão Xzibit - X-rap

    Código:
    Standard Tuning    
    This song is very easy and fun to play!!    
    Listen to the song for the timing    
        
        
    -------------------------------------------------------------------------------     
    -------------------------------------------------------------------------------     
    -------------------------------------------------------------------------------     
    -------------------------------------7--5-4---5-4---------------    
    --7-7-7--7-7-7-7-7--7-7-7--7-7-7-7---5--3-2---3-2-5------------    
    --5-5-5--5-0-5-5-5--5-0-5--5-5-5-0----------------3------------



Permissões de Postagem

  • Você não pode iniciar novos tópicos
  • Você não pode enviar respostas
  • Você não pode enviar anexos
  • Você não pode editar suas mensagens
  •  

Já fez "Like" na nossa página do facebook?

Acompanhe todas as novidades.