Página 1 de 10 12345 ... ÚltimoÚltimo
Resultados 1 a 15 de 141

Baixo (Partituras)

  1. #1
    GForum Vip
    Registo: Feb 2008
    Idade: 31
    Posts: 21.262

    Padrão Baixo (Partituras)

    Aqui serão colocados as partituras para Viola Baixo. De todos as bandas/grupos



  2. #2
    GForum Vip
    Registo: Feb 2008
    Idade: 31
    Posts: 21.262

    Padrão Nickelback - Flat On The Floor

    Nickelback - Flat On The Floor



    Código:
    Flat on the floor 
     
     
    Alright so, Drop D tuning, and the song is pretty quick paced so ya once you figure out  
    rhythm it should be fairly easy. 
     
    intro/Chorus 
    G-----------------------------------------------------| 
    D-----------------------------------------------------| 
    A-----3----------------------3------------------------| 
    D--00--0-33-0-3-55-356535-00--0-33-0-3-555-33---------| 
     
    verse 
    G-----------------------------------------------------| 
    D-----------------------------------------------------| 
    A--------------3--------------------------------------| 
    D--00-0-00-000--3-------------------------------------| 
     
    bridge 
    G-----------------------------------------------------| 
    D-----------------------------------------------------| 
    A-------3-----3----3---3------------------------------| 
    D---000--0-00--000---3--------------------------------| 
     
    Note 
    At a  minute and 23 seconds in it sounds like its goin into the verse but then it stops  
    skips to the end of the verse then repeats and plays through, just listen to it and  
    know what i mean.



  3. #3
    GForum Vip
    Registo: Feb 2008
    Idade: 31
    Posts: 21.262

    Padrão Nickelback - Hero

    Nickelback - Hero



    Código:
    Hero 
     
     
        Verse x2 
      G|-------------------------|| 
      D|-------------------------|| 
      A|-------------------------|| 
      E|---4-4-4-4-0-0-0-0-0-0---|| 
      
        Pre-Chorus x1 
      G|------------------------------------------|| 
      D|------------------------------------------|| 
      A|------------------------------------------|| 
      E|--3-3-3-3-3-5-5-5-5-5-0-0-0-0-0-0-0-0-0-0-|| 
     
        Chorus 
    pt.1G|------------------------------------------|| 
        D|------------------------------------------|| 
        A|------------------------------------------|| 
        E|---3-3-3-3-3-5-5-5-5-5-7-7-7-7-7-7-7-7-7-5|| 
     
    pt.2G|----------------------------------------------|| 
        D|----------------------------------------------|| 
        A|----------------------------------------------|| 
        E|--3-3-3-3-3-3-5-5-5-5-5-5-0-0-0-0-0-0-0-0-0-0-|| 
       
      Verse x2 
      Pre-Chorus x1 
      Chorus x1 
     
      Bridge(dont do until "thats why i fear it wont do") 
      G|--------------------|| 
      D|--------------------|| 
      A|--------------------|| 
      E|0-0-0-0-0-0-0-0-0-0-|| 
       
      Chorusx1 
      Chrous pt.1 x2 
      Chorus pt.2 x1 
    =========== 
     
     
    Band:Nickelback  
    Song:Hero-spiderman soundtrack 
    Submiter:Tyler Spencer 
     
        Verse x2 
      G|-------------------------|| 
      D|-------------------------|| 
      A|-------------------------|| 
      E|---4-4-4-4-0-1-1-1-1-0---|| 
      
        Pre-Chorus x1 
      G|------------------------------------------|| 
      D|------------------------------------------|| 
      A|------------------------------------------|| 
      E|--3-3-3-3-3-4-4-4-4-4-0-0-0-0-0-0-0-0-0-0-|| 
     
        Chorus 
    pt.1G|------------------------------------------|| 
        D|------------------------------------------|| 
        A|------------------------------------------|| 
        E|---3-3-3-3-3-5-5-5-5-5-7-7-7-7-7-7-7-7-7--|| 
     
    pt.2G|----------------------------------------------|| 
        D|----------------------------------------------|| 
        A|----------------------------------------------|| 
        E|--3-3-3-3-3-3-5-5-5-5-5-5-0-0-0-0-0-0-0-0-0-0-|| 
       
      Verse x2 
      Pre-Chorus x1 
      Chorus x1 
     
      Bridge(dont do until "thats why i fear it wont do") 
      G|--------------------|| 
      D|--------------------|| 
      A|--------------------|| 
      E|0-0-0-0-0-0-0-0-0-0-|| 
       
      Chorusx1 
      Chrous pt.1 x2 
      Chorus pt.2 x1



  4. #4
    GForum Vip
    Registo: Feb 2008
    Idade: 31
    Posts: 21.262

    Padrão Nickelback - Never Again

    Nickelback - Never Again



    Código:
    Nickelback 
    Never Again 
     
     
    Verso 
    G|-----------------------------------------------------| 
    D|*---------------------------------------------------*| 
    A|*---------------------------------------------------*| 
    D|---0-0-0-0-0-0-0-0--0-0-0-0-0--3-5-3p0--| 
     
    Refrao A 
    G|---------------------------------------------------------------------------------------| 
    D|*--------------------------------------------------------------------------------------| 
    A|*--------------------------------------------------------------------------------------| 
    D|--0-0-0-0-0-0-0-0--3-3-3-3-3-3-3-3-3--/12-12-12-12-12-12-12-12-| 
     
    Refrao B 
    G|--------------------------------------| 
    D|*-------------------------------------| 
    A|*-------------------------------------| 
    D|-0-0-0--0-0-0--0-0-0--3-3-3--| 
     
     
    Ponte  A  
    G|---------------------------------------------| 
    D|*--------------------------------------------| 
    A|*--------------------------------------------| 
    D|--0h3-3--0h3-3--0h3-3--5-3-5-6---| 
     
    Ponte  B  
    G|-------------| 
    D|*------------| 
    A|*------------| 
    D|--6-5-3-0-| 
     
     
    Fill 
    G|---------------------------| 
    D|*--------------------------| 
    A|*--------------------------| 
    D|--0-0-0-0-0-0-0--12-| 
     
     
     
    Aqui esta a exagerada lista da ordem em que vc tem q fazer os riffs 
     
    Verso  x12 
    Refrao  A   x1 
    Refrao  B   x2 
    Verso     x4 
    Refrao  A   x1 
    Refrao  B   x3 
    Refrao  A   x1 
    Refrao  B   x2 
    Verso     x4 
    Refrao  A   x1 
    Refrao  B   x3 
    Refrao  A   x1 
    Ponte  A    x4 
    Ponte  B    x4 
    Ponte  A    x4 
    Verso     x3 
    Fill      x1 
    Refrao  A   x1 
    Refrao  B   x3 
    Refrao  A   x1 
    Refrao  B   x3 
    Refrao  A   x1 
    Ponte  B    x4



  5. #5
    GForum Vip
    Registo: Feb 2008
    Idade: 31
    Posts: 21.262

    Padrão Nickelback - Too Bad

    Nickelback - Too Bad


    Código:
    Afinaçao: C,A,D,G    
                        
    Versos: (limpo) 
    G|--------------------|-------------------|--------------------| 
    D|*-------------------|-------------------|-------------------*| 
    A|*-------------------|-------------------|-------------------*| 
    C|--------15---------|-3---3r------------|-5---5r----5---5r-3-| 
     
    G|--------------------|-------------------|----------------------| 
    D|*-------------------|-------------------|---------------------*| 
    A|*-------------------|-------------------|---------------------*| 
    C|-0---0r-------------|-3---3r------------|-5---5r----5----12-10-| 
     
     
    G|--------------------|-------------------|-------------------| 
    D|*-------------------|-------------------|------------------*| 
    A|*-------------------|-------------------|------------------*| 
    C|--0r----------------|-10--10r-----------|-5---5------------| 
     
     
     Refrao: 
    G|--------------------|-------------------|----------------------(x2)| 
    D|*-------------------|-------------------|-------------------------*| 
    A|*-------------------|-------------------|-------------------------*|  
    C|--8-8-8-8-8-8-8-8-8-|--3-3-3-3-3-3-3-3--|-3h5--3-3h5--3-3h5--3-3h5-| 
     
     
    Essa musica, na realidade, foi gravada com um baixo de 5 cordas, 
    mas essa transcriçao esta corretamente adaptada para um baixo 
    de 4 cordas.



  6. #6
    GForum Vip
    Registo: Feb 2008
    Idade: 31
    Posts: 21.262

    Padrão Nickelback - Woke Up This Morning

    Nickelback - Woke Up This Morning




    Código:
    Nickelback 
    Woke Up This Morning 
     
    (versao de quatro cordas) 
     
    Afinaçao: C, E, A, D 
     
    Eu vou dar oo minutos e os segundos em q vc tem que fazer o riff dunte a musica, pra ficar mais fácil, 
    pq a tablatura é bem cumprida 
     
     
    (0:02) Intro 
    D|------------------------------------------------------------------------------| 
    A|------------------------------------------------------------------------------| 
    E|5-5--------------------------------3-3----------------------------------------| 
    C|--------------------------------------------------------------------------2-2-| 
     
    (0:09) Intro 
    D|----| 
    A|----| 
    E|----| 
    C|12| 
     
    (0:11) Intro 
    D|------------------------------------------------------------------------------------------| 
    A|------------------------------------------------------------------------------------------| 
    E|---------------------5-------------------------3----------------------------------------| 
    C|0-0------0-0---------------0-0------0-0---------------0-0------0-0---------2----0-0------| 
     
    (0:20) Intro 
    D|----------------| 
    A|----------------| 
    E|----5-5---------| 
    C|0-0-----0-0-2-2-| 
     
     
    (0:22) Verso: "I paid my last respects this morning on an early grave..." 
    D|----------------------------------------------------------| 
    A|----------------------------------------------------------| 
    E|----------------------------------------------------------| 
    C|0-0------0-0---------------0-0------0-0---------------0-0-| 
    (0:27) "A tiny church, a tiny town and not a tear was spent" 
     
    (0:30) "Not how I wanted it... I'm hating all of this" 
    D|------------------------| 
    A|------------------------| 
    E|------------------------| 
    C|0-0--------------3/(9)-| 
     
    (0:33) Pre-Refrao: "I'm hating, all of this" 
    D|---------------------------------------------------------------------------------------------------| 
    A|---------------------------------------------------------------------------------------------------| 
    E|---------------------------------------------------------------------------------------------------| 
    C|0-0------0-0--------2-2---0-0------0-0--------2-2---0-0------0-0--------2-2---0-0------0-0--/(12)-| 
     
    (0:43) Pre-Refrao "All of this, all of this..." 
    D|------------------------------------------------| 
    A|------------------------------------------------| 
    E|3--3--3--3--3--3--3--3--5--5--5--5--5--5--5--5--| 
    C|------------------------------------------------| 
     
    (0:49) Pre-Refrao: "All of this!" 
    D|-----------------------------------------------------------| 
    A|2--2--2--2--2--2--2--2--2--2--2--2--2--2-------------------| 
    E|-----------------------------------------/(9)(7)/(9)(7)-| 
    C|-----------------------------------------------------------| 
     
    (0:54) Refrao: "Now I know why I hide my love from you somedays..." 
    D|------------------------------------------------------| 
    A|2---2-2-4-6--(2)---2--2--2--7--7--7--5-----5--5--5--|  x 3 
    E|------------------------------------------------------| 
    C|0-----------------------------------------------------| 
     
    (1:11) Refrao: "Looks like you found me... now I know why" 
    D|--------------------------------------------------------| 
    A|/-7--7--7--5-----5--5--5---7---------------------------| 
    E|--------------------------------------------------------| 
    C|---------------------------------------------14\(0)-| 
    (1:17) "I felt like a shit when I woke up this morning" 
     
     
    (1:19) Ponte 
    A|------------------------------------------------------------------------------------------| 
    E|---------------------5-------------------------3----------------------------------------| 
    C|0-0------0-0---------------0-0------0-0---------------0-0------0-0---------2----0-0------| 
     
    (1:28) Ponte 
    D|----------------| 
    A|----------------| 
    E|----5-5---------| 
    C|0-0-----0-0-2-2-| 
     
     
    (1:30) Verso: "I've been a loser all my life, I'm not about to change..." 
    D|----------------------------------------------------------| 
    A|----------------------------------------------------------| 
    E|----------------------------------------------------------| 
    C|0-0------0-0---------------0-0------0-0---------------0-0-| 
    (1:35) "There ain't a woman on the planet who can deal with it" 
     
    (1:38) Verso: "Just how I wanted it... I'm hating all of this" 
    D|---------------------------| 
    A|---------------------------| 
    E|---------------------------| 
    C|0-0-----------------12----| 
     
    (1:41) Pre-Refrao: "I'm hating, all of this" 
    D|---------------------------------------------------------------------------------------------------| 
    A|---------------------------------------------------------------------------------------------------| 
    E|---------------------------------------------------------------------------------------------------| 
    C|0-0------0-0--------2-2---0-0------0-0--------2-2---0-0------0-0--------2-2---0-0------0-0--/(12)-| 
     
    (1:52) Pre-Refrao: "All of this, all of this..." 
    D|------------------------------------------------| 
    A|------------------------------------------------| 
    E|3--3--3--3--3--3--3--3--5--5--5--5--5--5--5--5--| 
    C|------------------------------------------------| 
     
    (1:57) Pre-Refrao "All of this!" 
    D|-----------------------------------------------------------| 
    A|2--2--2--2--2--2--2--2--2--2--2--2--2--2-------------------| 
    E|-----------------------------------------/(9)(7)/(9)(7)-| 
    C|-----------------------------------------------------------| 
     
    (2:02) Refrao: "Now I know why I hide my love from you somedays..." 
    D|------------------------------------------------------| 
    A|2---2-2-4-6--(2)---2--2--2--7--7--7--5-----5--5--5--|  x 3 
    E|------------------------------------------------------| 
    C|0-----------------------------------------------------| 
     
    (2:19) Refrao: "Looks like you found me... now I know why" 
    D|--------------------------------------------------------| 
    A|/-7--7--7--5-----5--5--5---7---------------------------| 
    E|--------------------------------------------------------| 
    C|---------------------------------------------14\(0)-| 
    (2:25) "I felt like a shit when I woke up this morning" 
     
     
    (2:27) Ponte 
    D|------------------------------------------------------------------------------------------|  
    A|------------------------------------------------------------------------------------------| 
    E|---------------------5-------------------------3----------------------------------------| 
    C|0-0------0-0---------------0-0------0-0---------------0-0------0-0---------2----0-0------| 
     
    (2:37) Ponte 
    D|----------------| 
    A|----------------| 
    E|----5-5---------| 
    C|0-0-----0-0-2-2-| 
    (2:38)... 
     
     
    (2:42) Pausa 
    D|---------| 
    A|---------| 
    E|---------| 
    C|5--4--2--| 
     
    (2:44) Pausa 
    D|-----------------------------------------------------------------------| 
    A|-----------------------------------------------------------------------| 
    E|--------------10--7--5---------------------------------------10--5--7--| 
    C|0---0-1-2-3-------------0---0-1-2-3---5--4--2--0---0-1-2-3-------------| 
     
    (2:52) Pausa 
    D|----------------------------------------------------------------------| 
    A|----------------------------------------------------------------------| 
    E|--------------2----------------------10--5--7----------------2--------| 
    C|0---0-1-2-3------2--4--0---0-1-2-3-------------0---0-1-2-3------2--4--| 
     
     
    (3:00) Pre-Refrao "all of this, all of this..." 
    D|------------------------------------------------| 
    A|------------------------------------------------| 
    E|3--3--3--3--3--3--3--3--5--5--5--5--5--5--5--5--| 
    C|------------------------------------------------| 
     
    (3:05) Pre-Refrao: "all of this!" 
    D|-----------------------------------------------------------| 
    A|2--2--2--2--2--2--2--2--2--2--2--2--2--2-------------------| 
    E|-----------------------------------------/(9)(7)/(9)(7)-| 
    C|-----------------------------------------------------------| 
     
    (3:11) Refrao: "Now I know why I hide my love from you somedays..." 
    D|------------------------------------------------------| 
    A|2---2-2-4-6--(2)---2--2--2--7--7--7--5-----5--5--5--|  x 3 
    E|------------------------------------------------------| 
    C|0-----------------------------------------------------| 
     
    (3:27) Refrao: "Looks like you found me...now I know why" 
    D|-----------------------------------------------| 
    A|/-7--7--7--5-----5--5--5---7----------------5-| 
    E|-----------------------------------------------| 
    C|-----------------------------------------------| 
    (3:33) "I felt like a shit when I woke up this morning" 
     
     
    (3:35) Outro 
    D|------------------------------------------------------------------------------------------| 
    A|------------------------------------------------------------------------------------------| 
    E|---------------------5-------------------------3----------------------------------------| 
    C|0-0------0-0---------------0-0------0-0---------------0-0------0-0---------2----0-0------| 
     
    (3:45) Outro 
    D|----------------| 
    A|----------------| 
    E|----5-----------| 
    C|0-0-----0-0-2-2-|



  7. #7
    GForum Vip
    Registo: Feb 2008
    Idade: 31
    Posts: 21.262

    Padrão Nelly Furtado - All Good Things

    Nelly Furtado - All Good Things



    Código:
    Key pattern for all song 
    
    --------------------------------| 
    --------------------------------| 
    --------------------------------| 
    5-------8-------3-------1-------| 
    
    1.0  
    
    Honestly what will become of me 
    
    ----------------| 
    ----------------| 
    ----------------| 
    5-------8-------| 
    
    don't like reality 
    
    ----------------| 
    ----------------| 
    ----------------| 
    --------3-------| 
    
    It's way too clear to me 
    
    ----------------| 
    ----------------| 
    ----------------| 
    --------1-------| 
    
    But really life is daily 
    
    ----------------| 
    ----------------| 
    ----------------| 
    5-------8-------| 
    
    We are what we don't see 
    
    ----------------| 
    ----------------| 
    ----------------| 
    --------3-------| 
    
    Missed everything daydreaming 
    
    ----------------| 
    ----------------| 
    ----------------| 
    --------1-------| 
    
    2.0  
    
    Flames to dust 
    
    ----------------| 
    ----------------| 
    ----------------| 
    8---------------| 
    
    Lovers to friends 
    
    ----------------| 
    ----------------| 
    ----------------| 
    3---------------| 
    
    Why do all good things come to an end 
    
    ----------------| 
    ----------------| 
    ----------------| 
    1-------5-------| 
    
    Flames to dust 
    
    ----------------| 
    ----------------| 
    ----------------| 
    8---------------| 
    
    Lovers to friends 
    
    ----------------| 
    ----------------| 
    ----------------| 
    3---------------| 
    
    Why do all good things come to an end 
    
    ----------------| 
    ----------------| 
    ----------------| 
    1-------5-------| 
    
    come to an end come to an 
    
    ----------------| 
    ----------------| 
    ----------------| 
    8-------3-------| 
    
    Why do all good things come to end? 
    
    ----------------| 
    ----------------| 
    ----------------| 
    1-------5-------| 
               C            G 
    come to an end come to an 
    
    ----------------| 
    ----------------| 
    ----------------| 
    8-------3-------| 
    
    Why do all good things come to an end? 
    
    ----------------| 
    ----------------| 
    ----------------| 
    1-------5-------|



  8. #8
    GForum Vip
    Registo: Feb 2008
    Idade: 31
    Posts: 21.262

    Padrão 3 Doors Down - Here Without You

    3 Doors Down - Here Without You


    Código:
    Here without you - 3 doors down 
     
    Refrão: 
    G|----------------------| 
    D|----------------------| 
    A|--4--------1----------| 
    E|------4--------2---4--| 
     
     
    		verse 1 
    G|-----------------------------------------| 
    D|-----------------------------------------| 
    A|--1---1-1-------------1---1-1------------| 
    E|------------4---4-4-------------2-2-1-4--| 
    		Verse 
    G|--------------------------------------------| 
    D|--------------------------------------------| 
    A|--1---1-1----------------1---1-1------------| 
    E|------------4-2--4-4-1-4-----------2-2-1-4--| 
    		Chorus 2 
    G|--------------------------------| 
    D|--------------------------------| 
    A|--4--4/----------1---1----------| 
    E|---------4---1-4-------2-2-1-4--| 
    		bridge 
    G|--------------------------------------------| 
    D|--------------------------------------------| 
    A|-1-1-1-1-1--4-4-4-4-4-----------------------| 
    E|----------------------4-4-4-4-4--1-1-1-1-1--| 
     
    G|------------------------------------------------------| 
    D|------------------------------------------------------| 
    A|-1-1-1-1-1--4-4-4-4-4---------------------------------| 
    E|----------------------4-4-4-4-4--1-1-1-1-1-1-1-1-1-1--| 
    		outro 
    G|--------------------------------------------------------| 
    D|--------------------------------------------------------| 
    A|--4-4-4-4-4-4-------------1-1-1-1-1-1----------------1--| 
    E|--------------4-4-4-4-4-4-------------2-2-1-4--4-4-4----|



  9. #9
    GForum Vip
    Registo: Feb 2008
    Idade: 31
    Posts: 21.262

    Padrão 3 Doors Down - Loser

    3 Doors Down - Loser



    Código:
    Intro
    
    G|-------------------------|----------------------------|
    D|-------------------------|----------------(7)---------|
    A|----------------5-5-5----|------------5-5--5--5-------|
    E|-(5)-2-22-2--2-------5-|--2-22-2--2-----------5-7-5-|
    
    G|-----------------------|----------------------------|
    D|-----------------------|----------------(7)---------|
    A|--------------5-5-5----|------------5-5--5--5-------|
    E|----2-22-2--2-------5-|--2-22-2--2-----------5-7-5-|
    
    Estrofe 
    
    G|-----------------------|----------------------------|
    D|-----------------------|----------------(7)---------|
    A|--------------5-5-5----|------------5-5--5--5-------|  x4
    E|----2-22-2--2-------5-|--2-22-2--2-----------5-7-5-|
    
    Refrão ("You're getting closer...")
    
    G|------------------------------------9-x---------|
    D|-----------------------(7)-------9----x---------|
    A|-----(2h4)----------5-5-5-6-7-7----------7------|
    E|-0-00-7-0--2-2-2--2--------------------------0:-|
    
    G|------------------------------------9-x----------------|
    D|-----------------------(7)--------9-x------------------|
    A|-----(2h4)----------5-5-5-6-7-7-7-----(7h9p7)-7-(5)----|
    E|-0-00-7-0--2-2-2--2---------------------------------0:-|
    
    G|------------------------------------9-x---------|
    D|-----------------------(7)-------9----x---------|
    A|-----(2h4)----------5-5-5-6-7-7----------7------|
    E|-0-00-7-0--2-2-2--2--------------------------0:-|
    
    G|-----------------------|
    D|-----------------------|
    A|-----(2h4)----------5:-|
    E|-0-00-7-0--2-2-2--2----|
    
    
    Segue:
    ---------------
    Intro
    
    Estrofe
    
    Refrão
    ---------------
    
    Ponte
    
    G|-----------------------------|---------------------------|
    D|-----------------------------|---------------------------|
    A|--------0--3-2:--------------|-----0--3-2:---------------|
    E|-/8-2---------0--0-1-2--/8-|--2----------0--0-1-2--/8-|
    
    G|--------------------------|----------------------------|
    D|--------------------------|----------------------------|
    A|-----0--3-2:--------------|-----00--3-2:---------------|
    E|--2---------0--0-1-2--/8-|--2-----------0--0-1-2--/8-|
    
    G|----------------------------|----------------------------|
    D|----------------------------|----------------------------|
    A|-----00--3-2:---------------|-----00--3-2:---------------|
    E|--2-----------0--0-1-2--/8-|--2-----------0--0-1-2--/8-|
    
    G|----------------------------|
    D|----------------------------|
    A|-----00--3-2:---------------|
    E|--2-----------0:------------| 
    
    
    Solo ( base em Estrofe )
    
    Refrão Final
    
    G|------------------------------------9-x---------|
    D|-----------------------(7)-------9----x---------|
    A|-----(2h4)----------5-5-5-6-7-7:---------7------|
    E|-0-00-7-0--2-2-2--2--------------------------0:-|
    
    G|------------------------------------9-x----------------|
    D|-----------------------(7)--------9-x------------------|
    A|-----(2h4)----------5-5-5-6-7-7-7-----(7h9p7)-7-(5)----|
    E|-0-00-7-0--2-2-2--2---------------------------------0:-|
    
    G|------------------------------------9-x---------|
    D|-----------------------(7)-------9----x---------|
    A|-----(2h4)----------5-5-5-6-7-7----------7------|
    E|-0-00-7-0--2-2-2--2--------------------------0:-|
    
    G|------------------------------------------|
    D|------------------------------------------|
    A|-----(2h4)----------5-5-5-5-5-5-----------|
    E|-0-00-7-0--2-2-2--2--------------5---0:--|
    
    G|------------------------------------9-x---------|
    D|-----------------------(7)-------9----x---------|
    A|-----(2h4)----------5-5-5-6-7-7:---------7------|
    E|-0-00-7-0--2-2-2--2--------------------------0:-|
    
    G|------------------------------------9-x----------------|
    D|-----------------------(7)--------9-x------------------|
    A|-----(2h4)----------5-5-5-6-7-7-7-----(7h9p7)-7-(5)----|
    E|-0-00-7-0--2-2-2--2---------------------------------0:-|
    
    G|------------------------------------9-x---------|
    D|-----------------------(7)-------9----x---------|
    A|-----(2h4)----------5-5-5-6-7-7----------7------|
    E|-0-00-7-0--2-2-2--2--------------------------0:-|
    
    G|-----------------------|
    D|-----------------------|
    A|-----(2h4)----------5:-|  
    E|-0-00-7-0--2-2-2--2----|



  10. #10
    GForum Vip
    Registo: Feb 2008
    Idade: 31
    Posts: 21.262

    Padrão 3 Doors Down - Smack

    3 Doors Down - Smack


    Código:
    This song is really easy.  The bass pretty much mirrors the guitar. 
    
    Bass comes in in the third measure
    Intro (x4)
    G---------------------------------
    D---------------------------------  
    A---------------------------------  
    E----/7-7--0-0-0-0--3-3--5-5-5-5--
    
    Verse (x8)
    G------------------------------------
    D------------------------------------
    A-----------5-5--5----------9-9-8-8--
    E---7-7--7---------5-5--5------------
    
    Chorus (x4)
    G---------------------------------
    D---------------------------------  
    A---------------------------------  
    E----/7-7--0-0-0-0--3-3--5-5-5-5--
    
    Verse (x8)
    G------------------------------------
    D------------------------------------
    A-----------5-5--5----------9-9-8-8--
    E---7-7--7---------5-5--5------------
    
    Chorus (x4)
    G---------------------------------
    D---------------------------------  
    A---------------------------------  
    E----/7-7--0-0-0-0--3-3--5-5-5-5--
    
    Bridge (x4)
    G-------------------------------
    D-------------------------------
    A----------3------------1-------
    E--3/5-3/5-----1/3-1/3----------
    
    Outro (x5)
    G------------------------------------
    D------------------------------------
    A-----------5-5--5----------9-9-8-8--
    E---7-7--7---------5-5--5------------
    
    End Note:
    G---------
    D---------
    A---------
    E---7----



  11. #11
    GForum Vip
    Registo: Feb 2008
    Idade: 31
    Posts: 21.262

    Padrão 50 cent - Hate It Or Love It

    50 cent - Hate It Or Love It


    Código:
    Artist:50 Cent (feat) The Game 
     
     
    G---------------------- 
    D----------------------  At the last 0 it's the Instrumental 
    A---------------------- / 
    E---5-0-5-5-5-5-2-2-2-0/



  12. #12
    GForum Vip
    Registo: Feb 2008
    Idade: 31
    Posts: 21.262

    Padrão 50 cent - In Da club

    50 cent - In Da club


    Código:
    G|---------------------------------------------------------------------------| 
    D|---------------------------------------------------------------------------| 
    A|--7--6-----x-6--7-x-4--6-x-7--6---x----------------------------------------| 
    E|---------------------------------------------------------------------------| 
     
    repeat a bunch of times, and then ull switch usually after the chorus, listen to 
    the song to find out when its kinda random 
     
    G|---------------------------------------------------------------------------| 
    D|---------------------------------------------------------------------------| 
    A|---------------------------------------------------------------------------| 
    E|--7--6-----x-6--7-x-4--6-x-7--6---x----------------------------------------| 
     
    this is how i liek to play it, its not even bass in the song its violin but i 
    dont play violin, i play bass. 
     
    | /  slide up 
    | \  slide down 
    | h  hammer-on 
    | p  pull-off 
    | ~  vibrato 
    | +  harmonic 
    | x  Mute note



  13. #13
    GForum Vip
    Registo: Feb 2008
    Idade: 31
    Posts: 21.262

    Padrão Aerosmith - Back In The Saddle

    Aerosmith - Back In The Saddle


    Código:
    intro
    
    G|-------------------------------------------|-------------------|
    D|-1-0---4-3---7-6--3-3---1-0---4-3---7-6----|-6-5-6-5-6-5-6-5---|
    A|-------------------------------------------|-------------------|
    E|-------------------------------------------|-------------------|
    
    chorus
    
    G|----------------------------------------5----5-5-4-----------|
    D|------------3---------------3-----------------------5--------|
    A|---3--5--5-----5---------------3--4--5-----------------------|
    E|-------------------3--4--5-----------------------------------|
    
    verso
    
    G|----------------------7---5---7--7--5--5-------------------------7--5-5-5-5-5---|
    D|---3---5----3--4--5------------------------8----3---5---3--4--5---------------8-|
    A|--------------------------------------------------------------------------------|
    E|--------------------------------------------------------------------------------|
    
    Final
    
    G|-----------5--4---2---0----------------------|
    D|--------------------------2------------------|
    A|------------------------------2----0---------|
    E|-----3----------------------------------3----|



  14. #14
    GForum Vip
    Registo: Feb 2008
    Idade: 31
    Posts: 21.262

    Padrão Aerosmith - Big Ten Inch Record

    Aerosmith - Big Ten Inch Record


    Código:
    G|-----------------|-----------------|-------4-5-4-----|-----------------|
    D|-----------------|-----------------|---4-7-------7-4-|-------4-5-4-----|
    A|-----------------|-----------------|-5---------------|---4-7-------7-4-|
    E|-0-0---0-0-0---0-|-0---0-0---------|-----------------|-5---------------|
    
                           tacet
     |-------4-5-4-----|-----------------|-------4-5-4-----|-----------------|
     |---4-7-------7-4-|-----------------|---4-7-------7-4-|-------4-5-4-----|
     |-5---------------|-7---------------|-5---------------|---4-7-------7-4-|
     |-----------------|-----------------|-----------------|-5---------------|
    
                                          guitar solo
     |-----------------|-----------------|-----------------|-----------------|
     |-----------4-5-6-|---4-5-6-7-4-----|-----------------|-----------------|
     |---4-5-6-7-------|-7-----------7-4-|-----------------|-----------------|
     |-7---------------|-----------------|-5-3-2-0-5-3-2-0-|-5-3-2-0-5-3-2-0-|
    
    
     |-----------------|-----------------|-----------------|-----------------|
     |-----------------|-----------------|-----------------|-------4-7-4-----|
     |-5-3-2-0-5-3-2-0-|-----------------|-7-5-4---7-5-4---|---4-7-------7-6-|
     |-----------------|-5-3-2-0-5-3-2-0-|-------7-------7-|-5---------------|
    
                                                               tacet
     |-------4-5-4-----|-----------------|-------4-5-4-----|-----------------|
     |---4-7-------7-4-|-------4-5-4-----|---4-7-------7-4-|-----------------|
     |-5---------------|---4-7-------7-4-|-5---------------|-7---------------|
     |-----------------|-5---------------|-----------------|-----------------|
    
     
     |-------4-5-4-----|-----------------|-----------------|-----------------|
     |---4-7-------7-4-|-------4-5-4-----|-----------4-5-6-|---4-5-6-7-4-----|
     |-5---------------|---4-7-------7-4-|---4-5-6-7-------|-7-----------7-6-|
     |-----------------|-5---------------|-7---------------|-----------------|
    
                                                               tacet
     |-------4-5-4-----|-----------------|-------4-5-4-----|-----------------|
     |---4-7-------7-4-|-------4-5-4-----|---4-7-------7-4-|-----------------|
     |-5---------------|---4-7-------7-4-|-5---------------|-7---------------|
     |-----------------|-5---------------|-----------------|-----------------|
    
                                                                   (h = hammer-on)
     |-------4-5-4-----|-----------------|-----------------|----------------5|
     |---4-7-------7-4-|-------4-5-4-----|-----------4-5-6-|---4-5-6-----4h7-|
     |-5---------------|---4-7-------7-4-|---4-5-6-7-------|-7-------0--7----|
     |-----------------|-5---------------|-7---------------|-----------------|
     
      +-- play each note as a triplet --+ sax solo
     |-----------------|-----------4-5-6-|-----------------|-----------------|
     |-----------------|-3-4-5-6-7-------|-----------------|-----------------|
     |-------3-4-5-6-7-|-----------------|-5-3-2-0-5-3-2-0-|-----------------|
     |-5-6-7-----------|-----------------|-----------------|-5-3-2-0-5-3-2-0-|
    
     
     |-----------------|-----------------|-------4-5-4-----|-----------------|
     |-----------------|-------4-7-4-----|---4-7-------7-4-|-------4-5-4-----|
     |-7-5-4---7-5-4---|---4-7-------7-6-|-5---------------|---4-7-------7-4-|
     |-------7-------7-|-5---------------|-----------------|-5---------------|
    
                           tacet
     |-------4-5-4-----|-----------------|-------4-5-4-----|-----------------|
     |---4-7-------7-4-|-----------------|---4-7-------7-4-|-------4-5-4-----|
     |-5---------------|-7---------------|-5---------------|---4-7-------7-4-|
     |-----------------|-----------------|-----------------|-5---------------|
    
                           tacet                     (hold)
     |-----------------|---------14-12-9-|-7-5-------------|
     |-----------4-5-6-|-----------------|-----7-5---------|
     |---4-5-6-7-------|-7---------------|---------7-0-----|
     |-7---------------|-----------------|-----------------|



  15. #15
    GForum Vip
    Registo: Feb 2008
    Idade: 31
    Posts: 21.262

    Padrão Aerosmith - Blind Man

    Aerosmith - Blind Man


    Código:
    1|..........o||....|.............................|
    2|......... .||....|........................... .|
    3|....0...5. ||...0|5.0.5.0.5.0.5.2.5...2.5.5.7..|
    4|.0.2.0.2..o||0.2.|.............2...0.2.........|
    
    chorus
    
    1|............. o||...|...........|
    2|...............||...|...........|
    3|5...2.5........||5.5|0.5...2.7.5|
    4|.5.0...5.0.0..o||...|...0.2.....|



Página 1 de 10 12345 ... ÚltimoÚltimo

Tags para este Tópico

Permissões de Postagem

  • Você não pode iniciar novos tópicos
  • Você não pode enviar respostas
  • Você não pode enviar anexos
  • Você não pode editar suas mensagens
  •  

Já fez "Like" na nossa página do facebook?


Assina a nossa newsletter. Recebe todas as novidades semanais no teu email e habilita-te a ganhar premios fantasticos que temos para sortear!

* indicates required